#1
Hi guys,

my band really wants do a cover of Deadliest Catch by Lower than Atlantis but since they're still a relatively underground band and haven't got a massive fan base there's no tabs for any of their songs. It's a pretty easy song by the sound of it but I'm not very good at figuring out songs so I was wondering if one of you would be able to do it for me.

Much Appreciated, Will
#2
Hey man, I've just listened to the song, and figured out some parts of it for you. This is all I have for now, but I'll keep trying to figure it out. Are you able to open GP files, because I could tab into a GP instead which would be easier?

Here's the intro:

e|------------------------------------|
B|------------------------------------|
G|------------------------------------|
D|------2~~~~~~~2-------2~~~~~~~2-----|
A|------------------------------------|
D|--2-3-----------0---0-----------0---|

e|------------------------------------|
B|------------------------------------|
G|------------------------------------|
D|------2~~~~~~~2-------2~~~--2-5-----|
A|--------------------------------3---|
D|--2-3-----------0---0-----0---------|

e|------------------------------------|
B|------------------------------------|
G|------------------------------------|
D|------2~~~~~~~2-------2~~~~~~~2-----|
A|------------------------------------|
D|--2-3-----------0---0-----------0---|

e|------------------------------------|
B|------------------------------------|
G|------------------------------------|
D|------2~~~~~~~2--------------2------|
A|----------------0---0---------------|
D|--2-3-----------0---0---------------|


That is repeated twice, but the second time, their isn't an E played on the 4th string after the two open chords.

Then the verse is:

e|------------------------------------|
B|------------------------------------|
G|------------------------------------|
D|------------------------------------|
A|--3-3-3-3-3-3-3-3-3-0-0-0-0-0-0-0---|
D|--3-3-3-3-3-3-3-3-3-0-0-0-0-0-0-0---|

e|------------------------------------|
B|------------------------------------|
G|------------------------------------|
D|------------------------------------|
A|--0-3-3-3-3-3-3-3-3-0-0-0-0-5-5-5---|
D|--0-3-3-3-3-3-3-3-3-0-0-0-0-5-5-5---|
Last edited by guitar ben94 at Oct 30, 2011,
#3
Quote by guitar ben94
Hey man, I've just listened to the song, and figured out some parts of it for you. This is all I have for now, but I'll keep trying to figure it out. Are you able to open GP files, because I could tab into a GP instead which would be easier?

Here's the intro:

e|------------------------------------|
B|------------------------------------|
G|------------------------------------|
D|------2~~~~~~~2-------2~~~~~~~2-----|
A|------------------------------------|
D|--2-3-----------0---0-----------0---|

e|------------------------------------|
B|------------------------------------|
G|------------------------------------|
D|------2~~~~~~~2-------2~~~--2-5-----|
A|--------------------------------3---|
D|--2-3-----------0---0-----0---------|

e|------------------------------------|
B|------------------------------------|
G|------------------------------------|
D|------2~~~~~~~2-------2~~~~~~~2-----|
A|------------------------------------|
D|--2-3-----------0---0-----------0---|

e|------------------------------------|
B|------------------------------------|
G|------------------------------------|
D|------2~~~~~~~2--------------2------|
A|----------------0---0---------------|
D|--2-3-----------0---0---------------|


That is repeated twice, but the second time, their isn't an E played on the 4th string after the two open chords.

Then the verse is:

e|------------------------------------|
B|------------------------------------|
G|------------------------------------|
D|------------------------------------|
A|--3-3-3-3-3-3-3-3-3-0-0-0-0-0-0-0---|
D|--3-3-3-3-3-3-3-3-3-0-0-0-0-0-0-0---|

e|------------------------------------|
B|------------------------------------|
G|------------------------------------|
D|------------------------------------|
A|--0-3-3-3-3-3-3-3-3-0-0-0-0-5-5-5---|
D|--0-3-3-3-3-3-3-3-3-0-0-0-0-5-5-5---|



No sorry bro I dont have GP but yeh that sounds about the same as what i got so hopefullly its right eh? :P and I think we can both definately agree its drop D