#1
hey guys i need some help coming up with a guitar solo

here is tab to the part be4 the solo. doesnt show times (like qaurter and whole notes)
DROP d tuning


A-------------------------------------7---------o||
d---10--8--7--8--7------10--8--7----8-------o||

this would be a lot of help
oh and i got the begining of the solo or any part but make shure
if you give me a part of the solo to include this part


E-----------------------------------
B---------13-15-----------15-17--
G--12-14----------14-16---------
D-----------------------------------
A------------------------------------
D--------------------------------------


and then end like this


E-----------12-----------------------
B-------13-----13--12--13----------
G---14------------------------12--14


thanks
#2
It looks like you are in the key of "d minor" or maybe "a minor"...either fits with the riff.
Just jam on anything in d or a minor and you're good.

If you don't know scales/how to use them, lemme know and I'll help out further.