#1
|------------------------------------------------------------------------|
|-33-33-3--77-77-7---33-33-3--77-77-7--88-88-8-77-77-7-88-88-8-------5---|
|-44-44-4--77-77-7---44-44-4--77-77-7--99-99-9-77-77-7-99-99-9-77-66-----|
|-44-44-4---------------44-44-4-----------99-99-9---------99-99-9---------4-|
|-22-22-2--55-55-5---22-22-2--55-55-5--77-77-7-55-55-5-77-77-7-55-44---4-|
|----------------------------------------------------------------------4-|

^^^^

I get the 2443 part
But how am i suppose to miss the 3rd on the second chord?

Greets from a newbie xD
Last edited by zehsebas at Nov 7, 2011,
#2
|-----------------------------------------------------------------------------------------------------|
|-33-33-3--77-77-7---33-33-3--77-77-7--88-88-8-77-77-7-88-88-8-----------5-|
|-44-44-4--77-77-7---44-44-4--77-77-7--99-99-9-77-77-7-99-99-9-77-66-----|
|-44-44-4----------------44-44-4---------------99-99-9-------------99-99-9-----------4-|
|-22-22-2--55-55-5---22-22-2--55-55-5--77-77-7-55-55-5-77-77-7-55-44---4-|
|---------------------------------------------------------------------------------------------------4-|

Im gonna make a bold assumtion and say this is what it should look like.

Also i have no idea of what you mean about "But how am i suppose to miss a one?"
Last edited by Honkern at Nov 7, 2011,
#4
Quote by Honkern
|-----------------------------------------------------------------------------------------------------|
|-33-33-3--77-77-7---33-33-3--77-77-7--88-88-8-77-77-7-88-88-8--------- 5-|
|-44-44-4--77-77-7---44-44-4--77-77-7--99-99-9-77-77-7-99-99-9-77-66-----|
|-44-44-4----------------44-44-4---------------99-99-9-------------99-99-9-----------4-|
|-22-22-2--55-55-5---22-22-2--55-55-5--77-77-7-55-55-5-77-77-7-55-44---4-|
|---------------------------------------------------------------------------------------------------4-|

Im gonna make a bold assumtion and say this is what it should look like.

Also i have no idea of what you mean about "But how am i suppose to miss a one?"

I am guessing he means leaving out a string in a chord.

The answer is try and practise.
Gear:
Schecter Damien Elite FR CRED
Ibanez RG7321FM w/ DiMarzio Bridge pickup
Roland CUBE 40XL
Digitech RP355

Quote by zgr0826
Banned because Raep = Me Gusta




ಠ_ಠ
#5
Ahh, ofc, that makes a lot of sense. As he said, just make sure one of your fingers is touching the string in the middle so its muted
#7
As i said, just lightly touch the string with one of your other fingers (probably the one used on the 5th fret)
#8
You can either mute it with index finger (with which you are holding barre), or you can "rest" the middle finger on the 4th string (unless you hold 77 with middle and ring finger, but there is no need to do that here).
#10
Quote by Honkern
|-----------------------------------------------------------------------------------------------------|
|-33-33-3--77-77-7---33-33-3--77-77-7--88-88-8-77-77-7-88-88-8-----------5-|
|-44-44-4--77-77-7---44-44-4--77-77-7--99-99-9-77-77-7-99-99-9-77-66-----|
|-44-44-4----------------44-44-4---------------99-99-9-------------99-99-9-----------4-|
|-22-22-2--55-55-5---22-22-2--55-55-5--77-77-7-55-55-5-77-77-7-55-44---4-|
|---------------------------------------------------------------------------------------------------4-|

Im gonna make a bold assumtion and say this is what it should look like.

Also i have no idea of what you mean about "But how am i suppose to miss a one?"


I'm going to make a bolder assumption and say this is what it should look like.

|------------------------------------------------------------------------|
|-33-33-3--77-77-7---33-33-3--77-77-7--88-88-8-77-77-7-88-88-8-------5---|
|-44-44-4--77-77-7---44-44-4--77-77-7--99-99-9-77-77-7-99-99-9-77-66-----|
|-44-44-4------------44-44-4-----------99-99-9---------99-99-9---------4-|
|-22-22-2--55-55-5---22-22-2--55-55-5--77-77-7-55-55-5-77-77-7-55-44---4-|
|----------------------------------------------------------------------4-|


In response to TS's question, you have to mute the D string with one of your fingers. I usually use my index.

And FYI, it's the fifth that's missing, not the third. The 7 on the B string is the a major third.
Quote by Geldin
Junior's usually at least a little terse, but he knows his stuff. I've always read his posts in a grouchy grandfather voice, a grouchy grandfather with a huge stiffy for alternate picking.
Besides that, he's right this time. As usual.
Last edited by Junior#1 at Nov 7, 2011,
#11
e:---
B:-7-
G:-7-
D:---
A:-5-
E:---


Would be much easier played as:

e:---
B:-7-
G:-7-
D:-0-
A:---
E:---
Schecter Omen 6FR
Line 6 POD X3 Live
Line 6 spider IV15
Yamaha F325
#13
Or play it as:

-
7
7
0
5
-

For a fuller sound because there's 2 D notes in the same pitch and not having the worry about muting the D string.
Schecter Omen 6FR
Line 6 POD X3 Live
Line 6 spider IV15
Yamaha F325