Page 1 of 29
#1
well this is kinda like the old "Name that Arpeggio" thread. This thread is for people to post riffs/scales/arpeggios/chords (all that stuff) and for people to determine them. But there are some rules!

1)You cannot post any licks, chords, scales etc unless it is your turn

2)You can only have a turn if you correctly determine another persons post

3) When its your turn, you must say what you are looking for in your answer ie. the key, which scale it is taken from, etc

4) NO SPAM!

ill start with an easy little tid-bit...
i want the key of this



e--------------------------------------------------------------
B-------------------------------------------------------------
G----------------------------------------------------------------
D----------------------------------------------------------------
A--------2-3-2------------2--3--------2-3-2-------------------
E--3--5---------5---3--5--------3--5---------5-3-5--3-------

Signature
#2
the key of C, is it not?
"When Life gives you lemons, throw the lemons back at Life and say 'Go make your own ****ing lemonade Life!'"

RIP Dimebag Darrell, 1966-2004
#4
Originally posted by Absent Cries
teh key of G


yes, key of G

your turn
Signature
#5
im not gonna go...

sorry, but i cant do this right now

im just answerin

someoneelse go
myspace.com/barcodeyouth
#7
Originally posted by Absent Cries
im not gonna go...

sorry, but i cant do this right now

im just answerin

someoneelse go


lmao, fourth post in and the thread has already gone awry.
#8

e------------------------------------------------------
A------------------------------------------------------
D------------------------------------------------------
G----------------------------------------2--1?-2-------
B-----------4--2--4---------------0?2?4----------4?2?0-
E--0--2--4-----------4--2?-0---------------------------

Scale please
(it's reaaaaly easy)
#11

e---11-10-8-10-8---8-------------------------
b---------------10---10-8-10-8--8------8----10
g------------------------------9--9-8-9--9----
d---------------------------------------------
a---------------------------------------------
E---------------------------------------------
Last edited by quinny1089 at Nov 12, 2004,
#14
Originally posted by ZoSo_420
3) When its your turn, you must say what you are looking for in your answer ie. the key, which scale it is taken from, etc
#15
^ I think this is a C pentatonic.
"Too few exercise the greatest freedom they have - the freedom of thought. Perhaps they demand freedom of speech as compensation." - Soren Kirkegard
#19
D sharp pentatonic?
"The shopowner and his son ... well that's an entirely different story altogether ... I had to beat them to death with their own shoes."
#20
Originally posted by ZoSo_420
yes, key of G

your turn


Could have been the key of C also, as you have neither F nor F#. Not trying to cause trouble or anything

Quinny, yours is in the key of Bb. The scale you are using is C Bebop Dorian, or some relative mode of that scale.

I think you should have titled this thread Name That Musical Blurb!
Last edited by SilentDeftone at Nov 12, 2004,
#22
^^I second Raindog, quite definately the A Blues scale.
The above user has physical deformities, which make any crude, sarcastic or offensive comments actually the fault of the threadstarter. Honest.
JmP's Evil Picnic (you know you want to...)
#24

----------------------------------
----------------------------------
---5^6---5^6--------5^6---5^6-----
-7-----7-----4/5--7-----7-----4/5-
----------------------------------
----------------------------------

----------------------------
----------------------------
---5^6---8^9-----5^6---6----
-7-----7-------7-----7---5--
----------------------------
----------------------------
we plants are happy plants
impulse
#30
Nope, close though. It is based in A (though that is not the only root *wink wink*).
we plants are happy plants
impulse
#32
I was looking for the A half-whole diminished scale, but yours would fit as well, your turn quinney.
we plants are happy plants
impulse
#36
Name the song this bass riff is from:

G|---------------------------------------------------------------------|
D|------------5-------------5-7-5-------------5-5~-------------5-5-7\--|
A|--------5h7-----------5h7---------------5h7---5~---------5h7---5-7\--|
E|-0~h5h7--------0~h5h7------------0~h5h7-----------0~h5h7-------------|

G|-------------------------------------------------------------------------|
D|------------5-------------5-7-8-------------5-7-5-4-4-4-4h5--------------|
A|--------5h7-----------5h7---------------5h7-----------------4-4-4-4h7----|
E|-0~h5h7--------0~h5h7------------0~h5h7-------------------------------0~-|


Hint: It's by a skilled bassist.
#40
cliff burton??

looks kinda like something metalicca would do
Originally posted by casualty01 talking to a dumbass
lol where to begin?
I know!!
how about, SHUT... THE F**K....... UP!!!