#1
I want to cover this song. I have transcribed most of it already except this little riff in the background that is a bit quiet. Can some one help me tab it please? It seems very simple,but I can't completely hear it. Maybe some one with better ears can help me.

It starts at 40secs at plays through out most of the song. You can hear it best at 58sec - 1:34 mins ...


http://www.youtube.com/watch?v=9K7rmxjk5RQ
#2
------------------------11--15-
-------------8----9-8----8----
----10---8----10-------------
-10---10---------------------
-------------------------------
-------------------------------

that is kinda what i got . but it doesn't flow right when i play it. if that makes sense....
#3
Hey man, you got pretty close, but from what I can hear it's played like this:

e|-------------------------------------|
B|-------------------------------------|
G|----------------------12-------------|
D|------15------13--------------15-----|
A|--15---------------------------------|
E|-------------------------------------|

e|--------------------------15---------|
B|------------------16--13-------------|
G|--13------12-------------------------|
D|-------------------------------------|
A|-------------------------------------|
E|-------------------------------------|


Obviously you can move it around the neck if you prefer to play around the 8th and 10th fret region. Enjoy