#1
I need this to be in G and C.....this would really help, I'm just not too sure how to do it.


Rooftops by Jesus Culture


{Gtr 1
e|----------------------------------12~----|
B|------9~-------9~--------9~--9h10-----9--|
G|----------9-11----9----------------------|
D|--11~------------------------------------|
A|---------------------12------------------|
E|-----------------------------------------|

{Gtr 1
e|-----------------------------------12~--------|
B|------9~-------9~--------9~---9h10-----9------|
G|----------9-11----9---------------------------|
D|--11~------------------------------------11~--|
A|---------------------12-----------------------|
E|----------------------------------------------|
#2
Quote by prettyzan
I need this to be in G and C.....this would really help, I'm just not too sure how to do it.


Rooftops by Jesus Culture


 {Gtr 1
e|----------------------------------12~----|
B|------9~-------9~--------9~--9h10-----9--|
G|----------9-11----9----------------------|
D|--11~------------------------------------|
A|---------------------12------------------|
E|-----------------------------------------|

{Gtr 1
e|-----------------------------------12~--------|
B|------9~-------9~--------9~---9h10-----9------|
G|----------9-11----9---------------------------|
D|--11~------------------------------------11~--|
A|---------------------12-----------------------|
E|----------------------------------------------|


G and C what?

It's already in C Major...
you're a stone fox
Last edited by Saint78 at Dec 1, 2011,
#3
the pit is not the place to ask this
we probably could answer this but we're too lazy.
Quote by kaptkegan
Don't think I've ever been sigged.


I pretty much never leave the drug thread anymore.
#4
In the key's of G and C. Two different keys we're playing it in.....I just need to know how many frets to move up or down.
#5
{Gtr 1
e|----------------------------------17~----|
B|------14~-------14~--------14~--14h15-----14--|
G|----------14-16----14----------------------|
D|--16~------------------------------------|
A|---------------------17------------------|
E|-----------------------------------------|

e|----------------------------------17~----|
B|------14~-------14~--------14~--14h15-----14--|
G|----------14-16----14----------------------|
D|--16~------------------------------------|
A|---------------------17------------------|
E|-----------------------------------------|



It won't line up but you get the idea.
Last edited by Tanglewoodguit at Dec 1, 2011,
#6
Quote by prettyzan
In the key's of G and C. Two different keys we're playing it in.....I just need to know how many frets to move up or down.


It's already in C, brah. Move it up 7 frets for G.
you're a stone fox
#11
Quote by prettyzan
I thought it was in E, cause the chords that go along it is E, C#m, and B


You could probably just change the chords instead of the actually lead part. That riff fits into C Major.
you're a stone fox
#12
Quote by Saint78
It's already in C Major...


it's in C#m, bro. how does that fit remotely close to CM?
There's no such thing; there never was. Where I am going you cannot follow me now.
Last edited by theogonia777 at Dec 1, 2011,
#13
Quote by theogonia777
it's in C#m, bro. how does that fit remotely close to CM?


Never mind, I was thinking of the wrong positioning, I'm used to seeing scales as a neck diagram, not tabs. My bad.
you're a stone fox