#3
Link is incomplete. Here's the error I get:

The URL contained a malformed video ID.
#5
Well try this alternate tuning E A D F# B B (two strings to change)

The first four chords sound like these, with some minor variations in phrasing:

B ||--0----|--0----|--0----|--0---------||
B ||--0----|--0----|--0----|--0---------||
F#||--5----|--0----|--4----|--5---------||
D ||--6----|--4----|--4----|--4---------||
A ||--7----|--2----|--X----|--X---------||
E ||--0----|-------|--2----|--4---------||


Chorus:

B ||--0----|--0----|--0----|--0----||
B ||--0----|--0----|--0----|--0----||
F#||--9----|--0----|--4----|--5----||
D ||--6----|--9----|--4----|--4----||
A ||--7----|--9----|--X----|--X----||
E ||--0----|--7----|--2----|--4----||


Chris Bailey from (www.ukguitarlessons.com )
#6
sweet thanks! but i hope im not asking too much but what would be other similar or closer chords to those?