#1
Okay so this'll be a community song, I'll start off with a simple little riff, and you guys can ad on to it, don't do anything big, or difficult, so newer players canm play and add along too. I'll publish the best suggestions on to a tab sheet, so go ahead and add along

Standard Tuning
-------3--------3---------3--------3--------3---------3---
-------3--------3---------0--------3--------3---------0---
-------0--------0---------0--------0--------0---------0---
---------------------2-----------------------------2---------
---2-------2------3---3-------2--------2------3---3------
-3--3----3--3---------------3--3-----3--3----------------
#2
6/8 you say.... hmmmm
Strange, It seems like a character mutation, Though I have all the means, of bringing you fuckers down, I can't make myself, To destroy upon command, Somehow forgiveness, lets the evil make a loss - Danger Mouse/Sparklehorse/Wayne Coyne
#4
Here's my riff. Kinda doesn't really fit with yours

E||-----------------------------|----------------------------|
B||-----------0h-1p-0-----------|-----------0h--1p--0--------|
G||--------2-----------2-----2--|--------2-------------2-----|
D||-----2-----------------2-----|-----0-------------------0--|
A||--0--------------------------|----------------------------|
E||-----------------------------|--1-------------------------|


-----------------0--------|--------------------------||
-----------3--------3-----|--------5-----------8-----||
--------2--------------2--|-----5-----5-----7-----7--||
-----0--------------------|--------------------------||
--------------------------|--------------------------||
--3-----------3-----------|--5-----------8-----------|



I personally love 6/8 I really got into it when I started listening to Jeff Buckley. I find its great for strumming and finger picking.
Strange, It seems like a character mutation, Though I have all the means, of bringing you fuckers down, I can't make myself, To destroy upon command, Somehow forgiveness, lets the evil make a loss - Danger Mouse/Sparklehorse/Wayne Coyne
Last edited by walkingminstral at Dec 20, 2011,
#5
if you play it smoothly it fits good enough. Jeff Buckley is actually what Ilisten too and then it makes me want to write something, and so I do it in 6/8
#6
I don't know if this is gonna fit with 6/8 but here is my little riff to continue yours:

D D F F G

E||-----------------2---2-------------1-------1--1--------------------3
B||-----------------3---3----------1----------1--1-----1--------------0
G||--------2--0----2---2------2--------------2--2--------2----------0
D||----2-----------0---0----3----------------3--3------------3-------0
A||-3---------------------------------------------------------------2---2
E||-----------------------------------------------------------------------3


And then a cycle of G,D,F, G,D,F, G,D,F and etc.

now someone write the lyrics
Signatures are for noobs