#1
I am interested in what kind of cool ones the peps here of UG have cooked up...(stuff that is not linear/stock sweeps). I'll start the ball rolling w/ a D-7 16th sweep.

u d-------| u------|
e|----------8-5-------|
B|--------6----6------|
G|---------------7---o|
D|-----7-------------o|
A|-5-8----------------|
E|---------------------|

Heres a copy/paste tab temp for for your sweep posting convenience:

e|--------------------------------------------|
B|--------------------------------------------|
G|--------------------------------------------|
D|--------------------------------------------|
A|--------------------------------------------|
E| -------------------------------------------|
#2
And here's the same thing with code to make it look even better!

  
   u d-----| u------| 
e|---------8-5--------|
B|-------6-----6------|
G|---------------7---o|
D|-----7-------------o|
A|-5-8----------------|
E|--------------------|

Heres a copy/paste tab temp for for your sweep posting convenience:


e|--------------------------------------------|
B|--------------------------------------------|
G|--------------------------------------------|
D|--------------------------------------------|
A|--------------------------------------------|
E|--------------------------------------------|


I can't give anything though, I'm still learning sweeping and all my patterns are standard.
#4
     S S  S  S S  S S  S  S   S S S S S S  S   
E||----------------------12S-10-7------------||
B||-------------------10----------8----------||
G||------11-12-9----9---------------9-7------||
D||----9--------------------------------9----||
A||--7-----------12-----------------------10-||
E||------------------------------------------||

This is the my favourite one I'm willing to share.
#5

e|---------------------10--9-------------------|
B|----------------10-----------10-------------|
G|-----------11--------------------11---------|
D|-------11------------------------------------|
A|-9-12----------------------------------------|
E|-----------------------------------------------|


Yep, it's CAFO.



e|---------------------7-------------------------|
B|----------------8--------8-----------------------|
G|-----------7----------------7----------------------|
D|--------6----------------------6--------------------|
A|-----7----------------------------7------------------|
E|--7----------------------------------7----------------|


E7#9 arpeggio.


Also, Protip: http://all-guitar-chords.com/arpeggio.php

EDIT: These are cool also.


e|--------------------------------------------|
B|--------------------------------------------|
G|-------4----------5--7------------------------|
D|---------5------7----------------------------|
A|------------7/8-------------------------------|
E|--------------------------------------------|




e|----------------------------------------14-15-12/14/12-|
B|-------------------------------13-17-----------------------|
G|------------------11/12-16--------------------------------|
D|---------------14--------------------------------------------|
A|--10/11--15-----------------------------------------------|
E|-------------------------------------------------------------|



The slides force you to play evenly.

EDIT2: Ignore my crappy code skills
you're a stone fox
Last edited by Saint78 at Dec 20, 2011,
#6
Here is a sweep picking version of pachelbels canon:

http://www.guitarlearningtips.org/guitar-technique/sweep-picking-exercises-part-2/

Although they are linear they also include taping and they are very fun to play. Enjoy
Last edited by apajr at Dec 21, 2011,
#7

E|----------------------13--------------------|
B|------------------10------------------------|
G|--------12--10------------------------------|
D|--------------------------------------------|
A|----12--------------------------------------|
E|13------------------------------------------|


It's FAG That's my favorite sweep to teach cause it's based on a word
Gibson Les Paul Custom (Aged White)
Custom Kramer Baretta
Custom Fender Strat
Epiphone Black Beauty
Epiphone AJ
Marshall JCM900 4201
Blackheart Little Giant
MXR Dist. +
MXR Six Band EQ
MXR Phase 90
Last edited by Xter at Dec 21, 2011,