#1
Hi everyone, I have been trying to figure out this little guitar part for a couple hours at least, and I've only been able to get some of it, so I figured I would enlist some more skilled ears than mine. I only need the little lead acoustic bit that lasts for the first 20 seconds, I have sheet music for the rest of it. I would appreciate it so much if somebody could figure this out for me!

http://www.youtube.com/watch?v=kYmgFIvbdY0
#2
From what I can hear, it's played like this:

e|--8p5---------8p5---------8p5-----------------|
B|------6h5---------6p5---------6p5-------------|
G|----------7p5---------7p5---------7p5-7~~~~~--|
D|----------------------------------------------|
A|----------------------------------------------|
E|----------------------------------------------|

e|--8p5-----------------------------------------|
B|------6h5-----6p8-6p5-------------------------|
G|----------7p5---------7p5-7h9p7---------7~~~~~|
D|--------------------------------10-7h10-------|
A|----------------------------------------------|
E|----------------------------------------------|


That is played twice