#2
meh I was bored and the song didnt sound too hard:
hope its useful


first chord is a D

first part:

E---------------------------------------------------------------------
A------------------0-------------------------0--2--4----------------
D--0---------------------------0------------------------0-----------
G------2-2-2-2----2-2-2-2----2-2-2-2------------------2-2-2-2
B------3-3-3-3----3-3-3-3----3-3-3-3------------------3-3-3-3
e------2-0-2-2----2-0-2-2----2-0-2-2------------------2-0-2-2

second part:
D G A
E-----------------------------------3-3-3-3----------------------------------0-0-0-0-----0-0-0-0---0-0-0
A------------------0---------------2-2-2-2----------------------------------0-0-0-0--0--0-0-0-0---0-0-0
D--0-------------------------------0-0-0-0--0------------0--------------2-2-2-2-2------2-2-2-2---2-4-2
G------2-2-2-2----2-2-2-2------0-0-0-0-----2-2-2-2-----2-2-2-2-----2-2-2-2------2-2-2-2---2-2-2
B------3-3-3-3----3-3-3-3------3-3-3-3-----3-3-3-3-----3-3-3-3-----2-2-2-2------2-2-2-2---2-2-2
e------2-0-2-2----2-0-2-2--3--3-3-3-3-----2-0-2-2-----2-0-2-2-----0-0-0-0-------0-0-0-0---0-0-0

D G A D
E-----------------------------------3-3-3-3----------------------------------0-0-0-0-------------------------
A------------------0---------------2-2-2-2----------------------------------0-0-0-0--0--2--4---------------
D--0-------------------------------0-0-0-0--0------------0--------------2-2-2-2-2-------------0-----------
G------2-2-2-2----2-2-2-2------0-0-0-0-----2-2-2-2-----2-2-2-2-----2-2-2-2-----------------2-2-2-2
B------3-3-3-3----3-3-3-3------3-3-3-3-----3-3-3-3-----3-3-3-3-----2-2-2-2-----------------3-3-3-3
e------2-0-2-2----2-0-2-2--3--3-3-3-3-----2-0-2-2-----2-0-2-2-----0-0-0-0-----------------2-0-2-2


this takes you up to about the first 45 seconds, it sounds like it just repeats this... NOTE: I very much doubt this is completely right, in fact i'm sure it has mistakes, but its a massive starting block for you, you don't get better at playing by ear by not practicing.

anyway I hope this helped

Peace out!