#1
did anyone cover 'Particolare uno' by Stefano Barone ..

the left hand tab isnt correct ..

it goes like this on the video ( left hand )

---9--------7--------5------
-----10--------8-------7--------
---------------------------
--------------------------
--------------------------
-------------------------

candy rat tab says ..

-------------7-------------------------
---10-s-8--------------------------------
-----------------------------------
---------------------------------

that doesnt make the actual sound as well
what the heck is that anyway