#1
Looked everywhere for this tab, can't find it anywhere. I'd love to learn it by ear but I don't want to **** it up, and I don't even know what tuning it's in.

Any help would be appreciated.
#2
I was only able to tab out the very beginning, I'm not sure if it's right though.


Tuning: EADGBe


This is the beginning
|-------------------|
|------2--3h2----|
|--3------------3-|
|-------------------|
|-------------------|
|-------------------|

Repeat this about 30x
|--2--3h2---------|
|------------3------|
|--------------------|
|--------------------|
|--------------------|
|--------------------|


And then this is the cool little riff that starts at about 0:43 of the song
|--12---13---17---18---17----------|
|--------------------------------18------|
|-----------------------------------------|
|-----------------------------------------|
|-----------------------------------------|
|-----------------------------------------|
Repeat about 16x


I wish I could give more, but that's all I'm able to figure out. I hope this helps.