#1
http://www.youtube.com/watch?v=lYjFeyAe_Ac&feature=related

I am having trouble hearing the chords in this song. If anybody could help me, that'd be super.

I know the main part is something of a G chord, like this:

e|------------------------|
B|------0-----0----------|
G|---------0-----0-------|
D|------------------------|
A|------------------------|
E|---3-------------------|

There's a C and an Em in there too somewhere... It sounds like once you figure it out, it's easy, but my ear is just not that good yet.

Lend me your ears!
#2
Verse is some mesh between G D C B Em i cant really get it.
its probably picking which might be among the lines of :
e|------------------------|
B|------0-----0----------|
G|------------------------|
D|----0-----0------------|
A|------------------------|
E|---3--------------------| or smthg.

ofc there are some deviations to Em that are quite noticeable
like in this part i hear:
Em..................D...............................C...............G
Lookin' for my freedom now now I've been lookin' for awhile...

Chorus
Em D G D C D (pause then) Em D C G

it probably wont help you but, well, you never know.

leo.
Last edited by leovante at Jan 8, 2012,