#1
It was like this:

-------------------------------------------------------------------------
SAFE & SOUND - Taylor Swift feat. The Civil Wars
-------------------------------------------------------------------------
Tabbed by: AlexMNet - http://www,youtube.com/user/AlexMNet
Video: http://www.youtube.com/watch?v=Ad54Hyk-G5k

Tuning: Standard
Capo 3rd


INTRO/VERSE

[Part I]
e|--------5p4----------------------------------------------------------
B|--------7---------------5----0h2-----2--0------------0------------5--
G|-----6-------6----------6----2-------2--2----------------------4-----
D|--4------------------6-------2-------2--2----4h6---------------------
A|------------------4----------0----0-----------------------4h6--------
E|---------------------------------------------0----0------------------

[Part II]
e|--------5p4---------------------0--0--
B|--------7---------------5----2--------
G|-----6-------6----------6----2--------
D|--4------------------6-------2--------
A|------------------4----------0--------
E|-----------------------------------0--


PRE-CHORUS
e|-----------------2----------2--4-----
B|-----4-----5----------2--5--------2--
G|-----4-----4-------------------------
D|-------------------------------------
A|--2-----2-----2-------0--------------
E|-------------------------------------


CHORUS

[Part I]
e|-----0-----2-----4------7--------7p4--------4--------
B|--2--2-----2-----5------5--------5-------7-----7--5--
G|--2-----2-----2-----4---------4----------------------
D|---------------------------6---------6---------------
A|--0--------------------------------------------------
E|------------------------0----------------7-----------
[x2]

[Part II]

e|-----0-----2-----4------7--------7p4--------4--------------2-------0--2--4-----
B|--2--2-----2-----5------5--------5-------7-----7--5----5---4----2-----------2--
G|--2-----2-----2-----4---------4------------------------6---4-------------------
D|---------------------------6---------6-----------------6-----------------------
A|--0--------------------------------------6-------------4---2----1--------------
E|------------------------0------------------------------------------------------


2ND CHORUS
(strumming)

[Part I]
A E
e|--0----0----0--
G|--2----0----0--
B|--2----1----4--
D|--2----2----4--
A|--0----2----2--
E|--0----0-------
[x2]

[Part II]
A E
e|--0----0----0----0----0----0--
G|--2----0----0----0----0----2--
B|--2----1----4----6----4----1--
D|--2----2----4----6----4----2--
A|--0----2----6----4----2----1--
E|--0----0----0----0----0----0--


BRIDGE
(strumming)

e|--0----0----0----0--
G|--0----0----0----0--
B|--2----4----6----4--
D|--2----4----6----4--
A|--0----2----4----2--
E|--0----0----0----0--


Was it due to me providing a YouTube credit or something? I was the one who did the tabbing, just gave credit where I found it.
#2
Could be your youtube links. Are you sure that it's accurate enough?
1. You're surfing the internet.
2. You're browsing through the UG forums.
3. You're reading now.
5. You didn't notice that there was no #4.
6. You just checked it.
7. Now you're having a lil smile.

Quote by hawk_kst
You Sir, have the best signature like ever!