#1
What is the proper way to play triplets (pick and fingers)?

For example, this part from That Was Just Your Life - Metallica


S S E E E E E E E S S E E E E E E E S S E E E E E E E E E E E E E E E
G||--------------------|-------------------|-------------------|-----------------|
D||*-------------------|-------------------|-------------------|-----------------|
A||------------7-------|-----------7-------|-----------7-------|-0---0-1-0-------|
E||*-0-0-0-5-6---6-5-6-|-0-0-0-5-6---6-5-6-|-0-0-0-5-6---6-5-6-|---3-------3-2-1-|
B||--------------------|-------------------|-------------------|-----------------|


and Holier Than Thou - Metallica


G|-------------------------------|
D|-------------------------------|
A|--7--------------------------7-|
E|--0--0--0--0--0--0--0--0--0--0-|


Maybe you should give those parts a listen first.

Thanks!
#2
they are 3 eight notes that take up the space of 2 eight notes(one beat)
i just count in threes for every beat


btw your tabs be ****ed up
Last edited by supersac at Jan 9, 2012,