#1
I have two versions from 0:55 (which on'es right? - I'm guessing the 2nd):
IT'S ALL LEGATO
e|-9-10-9-7------------------------------------------------------------------------
B|-------------10-9-7---------10-9-7---------------------------------------------
G|----------------------9-7-6-----------9-7-6---------9-7-6----6---------9b-9-
D|------------------------------------------------9-7-6---------9----9-7-6--------

or

e|-9-10-9-7-------------------------------------------------------------------------------
B|-------------10-9-7-6---------10-9-7-6---------7-6----------------------------------
G|-------------------------9-7-6-------------9-7-6------9-7-6----7-6------------9b-9-
D|------------------------------------------------------------------9------9-7-6-----------
A|----------------------------------------------------------------------------------9--------

If it's none of these two... which is it? Thanks
#2
I have the tab in a magazine I bought a while ago, and it looks like the first one is correct. I haven't played it though, and I'm not sure how accurate it is.
#3
Quote by ChamsRock
I have the tab in a magazine I bought a while ago, and it looks like the first one is correct. I haven't played it though, and I'm not sure how accurate it is.


first one? wow, well, to be fair the 2nd one does have some odd sounding notes.
#4
Personally, I play it like this:

e|-9-10-9-7--------------------------------------------------------------------------------
B|-------------10-9-7---------10-9-7-----------------------------------------------------
G|----------------------9-7-6-----------9-7-6---------11-9-7--------------------9b11-
D|------------------------------------------------9-7-6---------11-9-7-------------------
A|-------------------------------------------------------------------------12-11-9---------
#5
Quote by Glass Prisoner
Personally, I play it like this:

e|-9-10-9-7--------------------------------------------------------------------------------
B|-------------10-9-7---------10-9-7-----------------------------------------------------
G|----------------------9-7-6-----------9-7-6---------11-9-7--------------------9b11-
D|------------------------------------------------9-7-6---------11-9-7-------------------
A|-------------------------------------------------------------------------12-11-9---------



is this the original tab of Malmsteen's studio version?
http://www.rockmagic.net/guitar-tabs/yngwie-malmsteen/far_beyond_the_sun.tab