#2
Chords:
Dadd9:x x 0 11 10 12
Aadd9:xx7657
Fmaj7:x87555
B7:x24242
Db7:x46464


verse pattern:

e|---------------------------------------------------------------------------|
B|--------7----------7----------7-------7-----------7---------------------|
G|-----------6----------6-------------------6-----------6-----------------|
D|----8----------8---------8------8-----------8------------8-------------|
A|---------------------------------------------------------------------------|
E|---------------------------------------------------------------------------|

e|---------------------------------------------------------------------------|
B|--------6----------6------------9---------6---------6-------------------|
G|-----------6----------6----------------------6---------------------------|
D|----8----------8---------8-8---------8---------8-----------------------|
A|---------------------------------------------------------------------------|
E|---------------------------------------------------------------------------|


e|----------------------------------------------6---4--------------------------|
B|---------4---------4---------4--------4-----4---4--------------------------|
G|------------4---------4--------4------------4----4-------------------------|
D|-----6---------6--------6--------6------------------------------------------|
A|-------------------------------------------------------------------------------|
E|-------------------------------------------------------------------------------|

e|--------2---------2---------------------------------------------2---------2----------------------------------|
B|-----------3---------3--------------4--------4--------------------3--------3----------4--------4----------|
G|--------------2---------2-------------5---------5--------------------2--------2---------5---------5-------|
D|---0--------------------------------------4--------4-------0--------------------------------4---------4----|
A|---------------------------------------------------------------------------------------------------------------|
E|-------------------------------4-----------------------------------------------------4------------------------|

e|--------2---------2----------------------------|
B|-----------3---------3-------4----------------|
G|--------------2---------2----5----------------|
D|---0--------------------------4---------------|
A|------------------------------------------------|
E|-------------------------------4---------------|

Chorus:

Dadd9 Aadd9 (4x) Fmaj7 B7 (Db7)