#2
Yes, I think I've got it:

Guitar part @ 1:40 -

e--------X----------11----------10----11-------X----------11------14----
B--------4----------11---------------------------7----------11------11----
G--------4----------11---------------------------8----------11------11---
D--------6----------13---------------------------8----------13------13---
A--------6----------------------------------------6------------------------
E--------4-----------------------------------------------------------------


e--------X----------11----------10----11-------X----------14----------
B--------4----------11---------------------------7----------11----------
G--------4----------11---------------------------8----------11---------
D--------6----------13---------------------------8----------13---------
A--------6----------------------------------------6------------------------
E--------4-----------------------------------------------------------------

use whammy as needed.