#1
From the new album, I have two unreleased tabs from Ewan's new album. These will not be released. If you'd like to have them PM me for the link.
You're encouraged to share this with as many people as would like.
#2
Title: Hallelujah
Artist: Leonard Cohen
Album: III
Author: Music by arranged by Ewan Dobson

Dropped D Tuning:
1) E 4) D
2) B 5) A
3) G 6) D
capo on 2nd fret

Track 1: Track 1

E|-------------0-----------------------0-----------|-------------0-----------------------0-----------|
B|-------------1-----------------------1-----------|-------------1-----------------------1-----------|
G|---------0-----------------------2---------------|---------0-----------------------2---------------|
D|-----2-----------------------2-------------------|-----2-----------------------2-------------------|
A|-3-----------3---3---2---0-----------2---0---2---|-3-----------3---3---2---0-----------2---0---2---|
D|-------------------------------------------------|-------------------------------------------------|


E|-------------0-----------------------0-----------|-------------0-----------------------0-----------|
B|-------------1-----------------------1-----------|-------------1-----------------------1-------1---|
G|---------0-----------------------2---------------|---------0-----------------------2---------------|
D|-----2-----------------------2-------------------|-----2-----------------------2-----------2-------|
A|-3-----------3---3---2---0-----------2---0---2---|-3-----------3---3---2---0-----------2-----------|
D|-------------------------------------------------|-------------------------------------------------|


E|-3-----------3-----------5-----------5-----------|-3-----------3-----------5-----------5-----------|
B|-------------1-----------------------5-----------|-------------1-----------------------5-----------|
G|---------0-----------------------5---------------|---------0-----------------------5---------------|
D|-----2-----------------------2-------------------|-----2-----------------------2-------------------|
A|-3---------------3---2---0---------------0---2---|-3---------------3---2---0---------------0-------|
D|-------------------------------------------------|---------------------------------------------2---|


E|-------------5-------5---3-------3--5--3-------1---|-3-----------0-------------------0---0---------------|
B|-------------6-------6---0-------0-----0-------0---|-------------1---3---1---3---------3---3-3-------1---|
G|-----------------5---------------------------------|---------0-------4---2---4-------------------0-------|
D|---------3-------------------0---------0---0-------|-----2-----------------------0-----------0-----------|
A|-----3---------------------------------------------|-3---------------------------------------------------|
D|-3-----------------------5-------------------------|-------------------------5---------------------------|


E|-3-----------3-----------5-------5---7-------7---|-8-----------8-----------8-------8---10------10--|
B|-------------1-----------6-------6---0-------0---|-------------5---------------------------0-------|
G|---------0-------0-------------------------------|---------5-------5-------5-------5-------0-------|
D|-----2---------------2-------3-----------0-------|-----7---------------7---7---7-------------------|
A|-3-----------------------------------------------|-0-----------------------8-----------------------|
D|-------------------------3-----------5-----------|-------------------------------------------------|


E|-10----------10--10------10------10------12--10--|-8-----8-----------------------0-------3---|
B|-------------0-------0---9-------9-------13--12--|-10----10--10------------------1-------5---|
G|---------0---------------------------7-----------|-------9-------9-----------2---2---2-------|
D|-----0-----------------------9-------------------|-------10--------------2-------------------|
A|-------------------------7-----------------------|-0-----------------0-----------------------|
D|-5-----------------------------------------------|-------------------------------------------|


E|-5-----------5-----------5-----------5-------3---|-0-----------0-----------0-----------0-------3---|
B|-6-----------6-----------6-----------6-------5---|-1-----------1-----------1-----------1-------5---|
G|---------5-------5---------------5-------5-------|---------2-------2---------------2-------2-------|
D|-----3---------------3-------3-------------------|-----2---------------2-------2-------------------|
A|-------------------------------------------------|-0-----------------------0-----------------------|
D|-3-----------------------3-----------------------|-------------------------------------------------|


E|-5-----------5-----------5-----------5-------3---|-0-----------0-------------------0---0---------------|
B|-6-----------6-----------6-----------6-------5---|-1-----------1---3---1---3---------3---3-3-------1---|
G|---------5-------5---------------5-------5-------|---------0-------4---2-----------------------0-------|
D|-----3---------------3-------3-------------------|-----2-----------------------0-----------0-----------|
A|-------------------------------------------------|-3---------------------------------------------------|
D|-3-----------------------3-----------------------|-------------------------5---------------------------|


E|-------------0-----------------------0-----------|-------------0-----------------------0-----------|
B|-1-----------1-----------------------1-----------|-1-----------1-----------------------1-----------|
G|---------0-----------------------2---------------|---------0-----------------------2---------------|
D|-----2-----------------------2-------------------|-----2-----------------------2-------------------|
A|-3-----------3---3---2---0-----------2---0---2---|-3-----------3---3---2---0-----------2---0---2---|
D|-------------------------------------------------|-------------------------------------------------|


E|-------------0-----------------------0-----------|-------------0-----------------------0-----------|
B|-------------1-----------------------1-----------|-------------1-----------------------1-----------|
G|---------0-----------------------2---------------|---------0-----------------------2---------------|
D|-----2-----------------------2-------------------|-----2-----------------------2-------------------|
A|-3-----------3---3---2---0-----------2---0---2---|-3-----------3---3---2---0-----------2---0---2---|
D|-------------------------------------------------|-------------------------------------------------|


E|-------------0-----------------------0-----------|-----------------0-------8------|
B|-------------1-----------------------1-----------|-------------1-------8---8------|
G|---------0-----------------------2---------------|---------0---------------9------|
D|-----2-----------------------2-------------------|-----2-------------------10-----|
A|-3-----------3---3---2---0-----------2---0---2---|-3-----------3------------------|
D|-------------------------------------------------|--------------------------------|


E|---------------|
B|-1------1------|
G|-0------0------|
D|-2------2------|
A|-3------3------|
D|---------------|
#4
Why would it be a joke? I don't know anything about tab, but maybe you do. Does that look like tab to you? Or perhaps something else about it makes you think it's a joke?
Last edited by dAMaesTRo at Jan 26, 2012,