#1
Hey Guys,

need your help to find out the tabs of the following song by Philip Sayce:
Original

mybe its easier for you with a cover version i found on Youtube:
Cover

would be great if anyone could find out the tabs for this song, especially for the part from 0:00 to 0:22 (in the original)

keep rockin'
#2
Drop D tuning (1/2 step down)


Intro (2x)

e|---------------------------------------------------------------------------------------------------|
B|---------------------------------------------------------------------------------------------------|
G|---------------------------------------------------------------------------------------------------|
D|-------------------------------------------------------------------------3----------------------------|
A|--3h5--3h5--3h5 -3p0--------------5~------3---3-5---5-----------5--3---------------------|
D|------------------------------3--5--0---------0---3---3-5---5---0--------------5^--3p0--------|

e|---------------------------------------------------------------------------------------------------|
B|---------------------------------------------------------------------------------------------------|
G|---------------------------------------------------------------------------------------------------|
D|---------------------------------------------------------------------------------5/7\------------------|
A|--3h5--3h5--3h5 -3p0--------------5~------3---3-5---5---------------3/5\------------------|
D|------------------------------3--5--0---------0---3---3-5---5---0---000-------------------------|

Verse (2x)

e|---------------------------------------------------------------------------|
B|---------------------------------------------------------------------------|
G|---------------------------------------------------------------------------|
D|---------------------------------------------------------------------------|
A|---------------------------------------------------------------------------|
D|----3--5--5b-0-5~--3--0--3~--5b--5--5~--3p0--5p3p0---------|

e|---------------------------------------------------------------------------|
B|---------------------------------------------------------------------------|
G|---------------------------------------------------------------------------|
D|-----------------------------------------5/7--7--7------5/7\------------|
A|------------------------------5~--------3/5--5-5-------3/5\------------|
D|-0-3---5--5b-0-5~--3-0--------00--------------00-------------------|

e|---------------------------------------------------------------------------------------------|
B|---------------------------------------------------------------------------------------------|
G|---------------------------------------------------------------------------------------------|
D|--88888888-----------555555555----33333333---2222---11--------------------|
A|--88888888-----------555555555----33333333---2222---11--------------------|
D|--88888888--0--3/5-555555555----33333333---2222---11---20\-------------|


Chorus:

e|---------------------------------------------------------------------------|
B|---------------------------------------------------------------------------|
G|---------------------------------------------------------------------------| (3x)
D|--5-7-----------------5/7-7--5--7------3------------------------------|
A|--3-5--6-5-----------3/5-5--3--5---------5-3------------------------|
D|--------6-5---3--0-------------------0-----------5^--3p0------------|

e|---------------------------------------------------------------------------|
B|---------------------------------------------------------------------------|
G|---------------------------------------------------------------------------|
D|--5-7-----------------5/7-7--5--7----------5/7\-----------------------|
A|--3-5--6-5-----------3/5-5--3--5----------3/5\-----------------------|
D|--------6-5---3--0-------------------000-------------------------------|
Last edited by crmrz at Jan 23, 2012,