#1
I Got The Tab On My Ultimate Guitar App On My Iphone But Ive Been Watching Youtube Vids Of People Covering The Song And They Cnflict....also The Youtube Ones Sound Better Byt I Cant Figure The Fingering...anyone Know This Song Or Know The Tab?
#2
Drop C tuning (CGCFAD) I'll tab it as Drop D tuning..

(With distorsion)
e|---------------------------------------------------------------------------|
B|---------------------------------------------------------------------------|
G|---------------------------------------------------------------------------|
D|--0----8---10------10---------0-----8-----3----5---------------------|
A|--0----8---8--------10---------0-----8-----3----5---------------------|
D|--0----8------------10---------0-----8-----3----5---------------------|


(No distorsion)
e|---------------------------------------------------------------------------|
B|---------------------------------------------------------------------------|
G|---------------------------------------------------------------------------|
D|----------8---10----10---------8----3----5----------------------------|
A|----12---8---8------10----8---8----3----5----------------------------|
D|----0----8-----------10----0---8----3----5----------------------------|