#1
Hi,

I have backing track and it looks like this:

-------------------------------
-------------------------------
-------------------------------
-------------------------------
-2-----------------------------
-0-0-0-0-0-0-0-0-0-0-0-0-
-------------------------------
-------------------------------
-------------------------------
-------------------------------
-2-----------------------------
-0-0-0-0-0-0-0-0-0-0-0-0-

-------------------------
-------------------------
-------------------------
--5------7---5---------
--5------7---5---------
--3-0-0-5-0-3--------


and i played solo in whole parts of that backing in this in D-minor pentatonic scale, D-minor blues scale and normal D-minor. It isn't a mistake? Can i play in D key for all parts of that? I think so, but i prefer to make sure that it's ok and it isn't out of key,

Thanks for help and sorry for my weak english

greetings
Last edited by Andyym at Jan 26, 2012,
#4
Sorry, i forgot, backing track was in 1 down step so solo was also in one down step.

So just as I thought - D minor. Thanks for help!
Last edited by Andyym at Jan 26, 2012,