#1
First off, I don't really play classical guitar or fingerpick at all.........so I need/want some help figuring out the fingering for this (mainly the bolded part):


E||--------------------|----------------------|--------------------|
B||--0-----0--0-----0--|--0-----0--0-----2h-3-|--0-----0--0-----0--|
G||-----4--------4-----|-----4--------4-------|-----4--------4-----|
D||--------------------|----------------------|--------------------|
A||--2-----------------|----------------------|--2-----------------|
E||-----------2--------|--3--------0----------|-----------2--------|


E E E E E S S E E E E E E E E E E E E
-----------------------||--------------------|--0-----------------|
--0-----0--0-----2h-3--||--0-----------------|--0-----------------|
-----4--------4-------*||--------------------|--------------------|
----------------------*||--------------------|--------------------|
-----------------------||--2--2--2--2--2--2--|--------------------|
--3--------0-----------||--------------------|--0--0--0--0--0--0--|


E E E E E E E E E Q S S E S S S S E S S S S
--------------------|---------------------||---------------------------|
--0-----------------|--2-------------3p-2-||---3------3p-2-3------2h-3-|
--0-----------------|--2------------------||*-------0-----------0------|
--0-----------------|--2------------------||*-----0-----------0--------|
--------------------|--0--0--0--0---------||---2-----------------------|
--3--3--3--3--3--3--|---------------------||---------------3-----------|


E E E E S S S S E S S S S E S S S S E E E E S S S S
--0-------------------|------------------------|------------------------||
-----3--2--0------0---|--0------0---0--------0-|--2--3-----0------0h-2--||
--------2-----------2-|-----4-----2----0---2---|--------2--------------*||
-----2----------2-----|-------4----------0-----|-----2----------2------*||
--0-----------2-------|--2---------------------|--0-----------2---------||
-----------0----------|-------------3----------|-----------0------------||


Can I get by with using my thumb, index and middle fingers (for the bolded parts) or do I have to use all?
And could someone please help with the fingering of that part?
I can play the non-bolded parts easily but I'm stumped after that.

The song is Sons of Skyrim, a cover of which is right here: http://www.youtube.com/watch?v=rrMglvEAXNs

And the entire tab is right here:
http://www.gametabs.net/elder-scrolls-v-skyrim/sons-skyrim

Please fellow UGers, I request your aid!
Quote by FEngHLyan

She will join the prom.

She insists to wear this lights.

I don't think so.

How can I persuade her?
#2
You are probably better off posting this on the classical guitar part of the forums, but im gonna go ahead and say that you can probably get away with only PIM.

I need to ask though: WHY would you not want to use finger A ?


Considering you have good basics of left hand technique, im with satch on left hand fingering, you do get the fingerings in any way you want. (please use common sense to avoid injury though)
Quote by Hail
i'm the internet equivalent of ripping the skin off my face and strangling you with it right now


Quote by Steve Albini
Remixing is for talentless pussies who don't know how to tune a drum or point a microphone.