#1
Hi everyone, I'm having some trouble with the song Afraid to Shoot Strangers.

For reference, here is the song, and this is the tab I'm referring to (all others I've found are identical)

My problem is at the point where the vocals stop and the guitar comes in and repeats a pattern four times (it starts at around 2:40)

The tabs provide this pattern:

e ------------------------------------------9-----------------
B ---------9--10--9---10*------10--12---12--10--12*-
G -----11-----------11-------11----------------------------
D --11-------------------------------------------------------
A ------------------------------------------------------------
E ------------------------------------------------------------


e--------------------------------------------------------------
B -----9--10--12---9--10--12--10--9-------------9------
G---9--------------9----------------------11--9--11---11*-
D--------------------------------------------------------------
A--------------------------------------------------------------
E--------------------------------------------------------------


I can clearly hear, however, in the recording, an extra note at the end of each section, and after the second 10 on the b-string in the first section (all marked with *)

The best I've been able to come up with is duplicating the said note, so my tabs go:


e ----------------------------------------------9----------------------
B ---------9--10--9---10--10------10--12---12--10--12--12--
G -----11-----------11----------11----------------------------------
D --11----------------------------------------------------------------
A ---------------------------------------------------------------------
E ---------------------------------------------------------------------


e--------------------------------------------------------------------
B -----9--10--12----9--10--12--10--9--------------9----------
G---9--------------9----------------------11--9--11-----11--11-
D--------------------------------------------------------------------
A--------------------------------------------------------------------
E--------------------------------------------------------------------

It still sounds a bit off though...
Any help is appreciated, this is one of my favorite songs and it's really bothering me that I can't make it sound right.

I apologize for the long post.

Thank you for your help!