#1
im working on the fear of the dark solo and i cant play this part in the constant flow. i alternate pick throughout the solo. any advice?


e|-15---13^12-10----10--------------------------|
B|---------------10----13-11^10-----10----------|
G|-------------------------------12----12^10----|
D|-------------------------------------------12-|
A|----------------------------------------------|
E|----------------------------------------------|


e|----------------------------------------------|
B|----------------------------------------------|
G|--10----12-----10----10----10^2-\-------------|
D|----------------------------------------------|
A|----------------------------------------------|
E|----------------------------------------------|
#3
Quote by Yasaki
Practice
Pretty much this. You can't just play something which is actually to hard (but this may not be the case ofc). Just start it out slow (metronome) and work your way up