#1
G|-13----------13---------13----14----------
D|----14-11-------14-11------14----14-11----
A|----------11----------11---------------11-
E|------------------------------------------

G|-13----------13----------13----14----------
D|----14----11----14----11----14----14----11-
A|-------11----------11----------------11----
E|-------------------------------------------

G|-13----------13---------13----14----------|
D|----14-11-------14-11------14----14-11----|
A|----------11----------11---------------11-|
E|------------------------------------------|


Moderate speed. Keep your low level low, mid level low, and high level high so you don't overpower the high notes with the low notes

Let me know what you think
Quote by robertsanidiot
Jesus died for their sins. It would be a waste if they just didn't sin it up. If you ask me, it's almost unchristian if you DON'T eat the kiddies.
Quote by StewieSwan
Hahaha you short fuck
Quote by due 07
LOL manlet
Last edited by Enigmatic564 at Feb 17, 2012,
#2
G# E G#
...
minor 6, minor 3
...
I think you have a power chord with a raised 5th
#3
I think you greatly underestimate the harmonic complexities of classical music.


fun play though.
Quote by casualty01
the RIAA can't shut us down, interpol can't shut us down. the U.S. gov't can't shut us down and CERTAINLY not YOU can shut us down.


BA in Music theory
MusicMan Bongo, SUB -> Orange Terror 1000 stack

Quote by waterproofpie
it's a UtBDan sandwich. Awwww yeah!
#4
Quote by UtBDan
I think you greatly underestimate the harmonic complexities of classical music.


fun play though.

I do. I haven't had the chance to ever play piano for more than 30 seconds at a time and I've only been playing bass for 2 1/2 years now
Quote by robertsanidiot
Jesus died for their sins. It would be a waste if they just didn't sin it up. If you ask me, it's almost unchristian if you DON'T eat the kiddies.
Quote by StewieSwan
Hahaha you short fuck
Quote by due 07
LOL manlet