#1
Share your favorite licks in this thread, that way we all build our lick libraries.

You can copy this "tab sheet" if you want to.
|----------------------|
|----------------------|
|----------------------|
|----------------------|
|----------------------|
|----------------------|


This is a lick I find myself using sometimes.
|----------10-------|
|-------10-----13b--|
|--12b--------------|
|-------------------|
|-------------------|
|-------------------|
Usually followed by something like this.
|-10------10-13br-10--------|
|-----13----------------13b--|
|------------------------------|
|------------------------------|
|------------------------------|
|------------------------------|

Now share yours.
Quote by Kill A Kitten
You know that old saying: "Men who play bass in the band have the largest genitalia." Well, it's the same for women.
#3
Country cascade lick. Hybrid pick and let ring. Uses minor second dissonance and ends on E6/9
-12p9--0----0-----0-----0-----7
-----12---9-----0-------------7
--------12--------------------6
-------------11---------------6
-------------------10s11--
----------------------------0
Last edited by mdc at Feb 19, 2012,