#1
Okay I've been trying to tab this song (my first time) and I'm starting to get frustrated, this is what I've got so far:

C#--------------------------------------------------------------------------|
G#--------------------------------------------------------------------------|
E----------------------------------------------------------------------------|
B------6--6----6--------------------9--9----9----4---1---1--------------|
F#--4--4----4------4--4----4---7--7----7----2---2---2---4------------|
C#----------------2--2----2-----------------------------------------------|
................................................................ Pretty sure this last bit is off :/


C#--------------------------------------------------------------------------|
G#--------------------------------------------------------------------------|
E----------------------------------------------------------------------------|
B------6--6----6-------------------------------------4---4----4-----------|
F#--4--4----4------4--4----4----2---2----2----2---2----2--------------|
C#----------------2--2----2----0---0----0-------------------------------|


C#--------------------------------------------------------------------------|
G#--------------------------------------------------------------------------|
E----------------------------------------------------------------------------|
B----6------4--6--------------------9----7-9-----------------------------|
F#---------------4---4-2-2--4-4--------------7--9--6--7---------------|
C#------------------------------------------------------------5------------|


C#--------------------------------------------------------------------------|
G#--------------------------------------------------------------------------|
E----------------------------------------------------------------------------|
B----6------4--6-----------------------2?---------------------------------|
F#---------------4---4-2-2--4-4--2--------------------------------------|
C#--------------------------------------------------------------------------|

If someone could pick up the pieces and tab this song and upload it, it would be awesome. Ty
Last edited by FullHorizon at Feb 25, 2012,