#1
It's probably only a matter of time before this song gets tabbed, but either way I want to get interest out there.

I've been trying to get the intro down by ear (and I think I got it pretty close, still off though).

The whole song is killer, but the intro is so awesome even tough it's pretty short.
Last edited by Darth Usurper at Feb 26, 2012,
#2
i can't make a tab right now, but it's really easy. hope this is ok.

the first part is like:

(tapping)

Eb:12-0-8-------
Bb:-------12-0-8


listen for the rhythm

then trill on first string: 10-12, end on 10th fret

then
Eb:-------------
Bb:0-0-0-0-0-0-4
Gb:2-4-5-4-0-2-4
Db:------------2
Ab:-------------
Eb:-------------


then

Eb:-------------
Bb:-------------
Gb:-------------
Db:--------7-7--
Ab:------0-5-5--
Eb:2-3-4--------