#1
e--------------------------------------------------------------
B--------------------------------------------------------------
G--------------------------------------------------------------
D---------------------2----------------------------------------
A-------------3---2------3---2------3----2------------2----
E--0---3--2----------------------3-----------3----2-------0
#4
Quote by :-D
No one is going to be able to give you an accurate answer.

I did! I told him, I wrote it last night.

The thief!
Your flesh means more than you.
No profit...
For once no profit...


Quote by She
That's what.




CHECK IT OUT NOW
FUNK SOUL BROTHER
#6
Quote by GazzaCee
I wrote that last night.

I did, actually.
#7
besides it sound like sh*t yes i think somewhere it does exist somehow
#8
It sounds more like an exercise, lol. I don't have perfect pitch, so can't pitch the low E. Relative pitch enables me to sing this, though. Since I'm away from a guitar.
#9
Yes, it's called the "look at me butcher the E minor scale" riff.
Last edited by Verse34k at Feb 26, 2012,
#10
Stick in to an odd time signature, make some of the notes dotted values, add some rests, incorporate a good variety of rhythmic subdivisions, and you'll have something interesting.
#12
Quote by macashmack
e--------------------------------------------------------------
B--------------------------------------------------------------
G--------------------------------------------------------------
D---------------------2----------------------------------------
A-------------3---2------3---2------3----2------------2----
E--0---3--2----------------------3-----------3----2-------0


apparently it does. how else could you have tabbed it out for us?
shred is gaudy music
#13
Quote by macashmack
e--------------------------------------------------------------
B--------------------------------------------------------------
G--------------------------------------------------------------
D---------------------2----------------------------------------
A-------------3---2------3---2------3----2------------2----
E--0---3--2----------------------3-----------3----2-------0


this explains why a lot of guitarists have no rhythm...

chances are, if you have to ask, then yes.
Anfangen ist leicht, Beharren eine Kunst.
#14
Quote by AeolianWolf
this explains why a lot of guitarists have no rhythm...

chances are, if you have to ask, then yes.


I wish I could prove you wrong but when a guitarist begins a topic and asks us about a riff and just shows us a tab with no rhythmic notation, it really looks like that.
#16
I don't recognise it. It's of a type; don't worry whether it's ever been used before. I certainly don't think it has in popular music. To me it sounds like old film or cartoon suspense music, jazz influenced. I can see Tom & Jerry creeping around to it.