#2
i Think its something like this- Standard tuning, palm muted
e|---------------------------------------------------------------------------------------------------|
B|---------------------------------------------------------------------------------------------------|
G|---------------------------------------------------------------------------------------------------|
D|---------------------------------------------------------------------------------------------------|
A|--3-----4------4-------4-------4-------3---3---3------3------3------3-------1---3----------|
E|-----------1-1----1-1----1-1-----1-1-------------1-1---1-1----1-1----1-1-----------------|
Last edited by MrBillion at Mar 6, 2012,
#3

e|---------------------------------------------------------------------------------------------------|
B|---------------------------------------------------------------------------------------------------|
G|---------------------------------------------------------------------------------------------------|
D|---------------------------------------------------------------------------------------------------|
A|--3-----4------4-------4-------4-------3---3---3------3------3------3-------1---3----------|
E|-----------1-1----1-1----1-1-----1-1-------------1-1---1-1----1-1----1-1-----------------|

LOOKING GOOD, thanks. I could've sworn though each time you play the 3 or 4 on the A string it was a pull off to a lower note.