#2
Capo 1st Fret. (For the youtube video you requested. Original version is
different but can be played in Open E tuning, using Bm, F#m, G, Em, A)


            Am                  Em          F                Dm  G G G
e|----------0-------------------0-----------1----------------1---3-3-3---|
B|----------1-------------------0-----------1----------------3---3-3-3---|
G|----------2-------------------0-----------2----------------2---0-0-0---|
D|----------2---0-2-0-----------2-----------3------------0---0---0-0-0---|
A|------0---0---------3-2-0-----2-----------3--------------------2-2-2---|
E|--------------------------0---0---0-3-0---1---1-3-1-0----------3-3-3---|
#3
It sounds close, but I'm not sure about that first run and the F chord. Also the G sounds like bottom two strings are open.
#4
This is what I got, in standard tuning.

e|---------2-------------------2-------------------3---------------0---0-0-0-|
B|---------3---2-3-2-----------2-------------------3---------------0---2-2-2-|
G|---------4-------------------x-------------------4---------------0---2-2-2-|
D|---------4---2-4-2-----------4-------------------5---------------2---2-2-2-|
A|-----2---2---------5-2-------4-------------------5---------------2---0-0-0-|
E|-----------------------5-2---2---2-2-5-2-2---3---3---3-5-3-2-0---0---x-x-x-|
Last edited by Caleb B at Mar 9, 2012,