#1
i think i might of got it but idk tell me what you think. by the way my tuning is half way between regular e and d#. it sounds right


e----------19p15--------------------------------------------------------------------
b-12h15------------191919p17p16-------------------------------------------------
g----------------------------------------171717p16p14----------------------------
d-----------------------------------------------------------191919p17s16h17s13--
a--------------------------------------------------------------------------------------
E--------------------------------------------------------------------------------------


e----------------------------------------------------------
b-15p13p12-----12--------------------------------------
g-------------14-----14p12s11--12p11s9s8s9s11s12--
d----------------------------------------------------------
a----------------------------------------------------------
E----------------------------------------------------------


e---------------------------------------------------------------------------------
b-7h10p7ect-13h16p13ect--10h13p10ect-16h19p16ect-13h16p13ect-19h22p19ect-
g---------------------------------------------------------------------------------
d---------------------------------------------------------------------------------
a---------------------------------------------------------------------------------
E---------------------------------------------------------------------------------

well there. im not good at tabbing so deal with it. um there is the first part (5:34-5:48)
please give me feedback. id really like to learn how to play this solo
Last edited by ironzeppelin446 at Mar 11, 2012,