#1
http://www.youtube.com/watch?v=uRH5OzdKLHw

Hey, was watching the cable guy on tv the other night and this song was played at the end of the credits

I thought the lead guitar sounds great and was wondering if anyone has a tab for it, I searched around on the web a bit and havent found anything

thanks in advance
#2
bump i guess

i really am not good enough to tab it out myself, and i dont know why but i really want to play it
#3
bumping again, i really cant find anything on the web about this ong
#4

e||------------0---0--0-----------8-|-----------0---0--0------------------|
B||-------8---10b-10b-8-------10----|------8---10b-10b-8-------10---------|x2
G||--4S-9---9------------9s10-------|--4s9---9------------9s10-------10-9-|
D||---------------------------------|-----------------------------10------|


     Play when repeat
     v
e||-----------------------------------------------|----------------------------------------------|
B||-(12)-12-12-12-12-8-8-8s10-10-8-8-8-13-12-10-8-|--12-12-12b---12-8-8-8s10-10-8-8-8-13-12-10-8-|x2
G||-----------------------------------------------|----------------------------------------------|
D||-----------------------------------------------|----------------------------------------------|

                                                                        Play when repeat
   Distortion OFF                   Distortion ON                       v
e||------------------------------8-|-----------0---0--0--------------------|
B||-----8---10b-10b-8--------10----|------8---10b-10b-8-------10-----------|x2
G||--9----9------------4s10--------|--4S9---9------------9s10-------10-(9)-|
D||--------------------------------|-----------------------------10--------|