I know the tab, but not the title of an acoustic song (F C E Am, tab below)

#1
For a while now I've been trying to find a simple acoustic fingerstyle song. I've seen it on UG about a year back, but never saved it unfortunately. And it's been bugging me ever since.

I don't think it's a widely known song unfortunately though. But if someone recognises it, or at could point me in the right direction, I'd be forever grateful!

All I can remember about this song is that it started out rather simple, but implemented more strings as the song progressed. The chorus went something like this if my memory serves me right:

E |--1-----------1-------------|--1-----------1-------------|
B |--------1-----------1-------|--------1-----------1-------|
G |-----2-----2-----2-----2----|-----2-----2-----2-----2----|
D |--------3-----------3-------|--------3-----------3-------|
A |----------------------------|----------------------------|
E |--1-----------1-------------|--1-----------1-------------|


--0-----------0-------------|--0-----------0-------------|
--------1-----------1-------|--------1-----------1-------|
-----0-----0-----0-----0----|-----0-----0-----0-----0----|
--------2-----------2-------|--------2-----------2-------|
--3-----------3-------------|--3-----------3-------------|
----------------------------|----------------------------|


--0-----------0-------------|--0-----------0-------------|
--------0-----------0-------|--------0-----------0-------|
-----1-----1-----1-----1----|-----1-----1-----1-----1----|
--------2-----------2-------|--------2-----------2-------|
----------------------------|----------------------------|
--0-----------0-------------|--0-----------0-------------|


--0-----------0-------------|--0-----------0-------------||
--------1-----------1-------|--------1-----------1-------||
-----2-----2-----2-----2----|-----2-----2-----2-----2----||
--------2-----------2-------|--------2-----------2-------||
--0-----------0-------------|--0-----------0-------------||
----------------------------|----------------------------||


Thanks in advance guys!
#2
Pretty sure ive tried to learn this at one point. i vaguly recognize the progression but I cant think of the name either. Will try it out when i get home tonight. It may come to me once ive played a bit.
#4
Bump-de-dump. Maybe there are some other people out there who've yet to see this . Oh and it's not Umbrella by Rihanna btw hehe.
#5
Quote by FuzzySheep
Bump-de-dump. Maybe there are some other people out there who've yet to see this . Oh and it's not Umbrella by Rihanna btw hehe.


You can't bump Your own thread. But I can. BUMP.
#6
Quote by blakeg14
You can't bump Your own thread. But I can. BUMP.


That's what you get for being a noob on forums in general haha. Thanks though!