#3

1:05
    W    H.  Q     W    H. Q     W    H. Q    W     W    W    H  H     W    H  H    W    W
E||----|--------|-----|-------|-----|-------|----|-----|----|-------|-----|-------|----|----|
B||-8--|--------|-/9--|-8-----|-----|----9--|-8--|-----|----|-9--8--|-----|-------|----|----|
G||----|-8s--3--|-----|----8--|-10--|-------|----|-10--|-8--|-------|-10--|-8--7--|-8--|-L--|
D||----|--------|-----|-------|-----|-8-----|----|-----|----|-------|-----|-------|----|----|
A||----|--------|-----|-------|-----|-------|----|-----|----|-------|-----|-------|----|----|
E||----|--------|-----|-------|-----|-------|----|-----|----|-------|-----|-------|----|----|

1:29
      W     Q. Q.  Q     W      Q.  Q.   Q       W      Q.   Q.   Q       W      W      W
E||------|------------|-----|------10s--11s--|--13--|--10s--11s--13s--|--15--|--13--|--11--|
B||--11--|--9--8------|-----|--11------------|------|-----------------|------|------|------|
G||------|--------10--|--8--|----------------|------|-----------------|------|------|------|
D||------|------------|-----|----------------|------|-----------------|------|------|------|
A||------|------------|-----|----------------|------|-----------------|------|------|------|
E||------|------------|-----|----------------|------|-----------------|------|------|------|


1:44
    Q.  Q.  Q      W      H   H       W     W
E||--16--15------|------|------18s--|--11--|--L--||
B||----------16--|--18--|--16-------|------|-----||
G||--------------|------|-----------|------|-----||
D||--------------|------|-----------|------|-----||
A||--------------|------|-----------|------|-----||
E||--------------|------|-----------|------|-----||

Duration Legend
---------------
W - whole
H - half
Q - quarter
E - 8th
. - note dotted

Tablature Legend
----------------
L - tied note
s - legato slide
#4
sorry for late thanks, but thanks none the less.
I was out of town for many months.. and now i cant even play basic guitar.. all of my skills are gone