#3
Quote by gangsta_rick
Anyone have the tab to the violin bow solo?


Ever tried Google? GuitarTabs.cc



.........................................

Violin Bow Solo

Here, Instead of trying to tab out the studio version (an amalgam of overdubs) 
I am going to tab out most of what Page Played at Led Zeppelins performance at 
the Royal Albert Hall on January 9th 1970. You can find this on the main feature 
on disc one of their DVD. This is not exact so there are probably a lot of errors 
and there are parts, which I did not tab so here goes. Forget about rhythm this is in free time.
Delay is used a lot (feedback 0, 1 second delay).

E|---12====--10====--5===--7===--|
B|---12====--10====--5===--7===--|
G|---14====--12====--7===--9===--|
D|---14====--12====--7===--9===--|
A|---12====--10====--5===--7===--|
E|---12====--10====--5===--7===--|


E|------12/15---17\0--|------12/15-17-19-17h19p17-15-12-12/14-12/14-12\0-------
B|--------------------|--------------------------------------------------------
G|-*12*---------------|-*12*---------------------------------------------------
D|--------------------|--------------------------------------------------------
A|--------------------|--------------------------------------------------------
E|--------------------|--------------------------------------------------------

W/Delay      *       *      *     *
e|----------12------10------5-----7------------ 
b|----------12------10------5-----7------------ 
g|----------12------12------7-----9------------ 
d|----------14------12------7-----9------------ 2x
a|----------14------10------5-----7------------ 
E|----------12------10------5-----7------------  

   *   *    *  *    * *    *  *
e|------------------------------------- 
b|------------------------------------- 
g|-14--14----12--12----7--7----9--9---- 
d|-14--14----12--12----7--7----9--9---- 3x
a|-12--12----10--10----5--5----7--7---- 
E|-12--12----10--10----5--5----7--7---- 


    *  *  * *  *  *  *  *  *  *  * *      *    
e|----------------------------------------5---
b|----------------------------------------5---
g|-11-11-12-12-14-14-16-14-12-11-9-7------5---
d|-11-11-12-12-14-14-16-14-12-11-9-7------5---
a|-9--9--10-10-12-12-14-12-10-9--7-5----------
E|-9--9--10-10-12-12-14-12-10-9--7-5----------

E|------------------|--------------|-------------|
B|------------------|--------------|-------------|
G|------------------|--------------|-------------|
D|--5/9===\0----9\0-|--------------|-------------|
A|--5/9===\0----9\0-|--------------|-------------|
E|--3/7===\0----7\0-|-7\1/7\6===\0-|-1/7\6/14\13-|

                         `’`’`’`’`’`’`
E|---------------------------------------------|
B|---------------------------------------------|
G|---------------------------------------------|
D|---------------------------------------*12*--|
A|---------------------------------------*12*--|
E|-1/7\6/12\11/14\13/14/15~~~~b(17)15----------|

                    `’`’`’`’`’`
E|-------------------------------|-----------------|------------|
B|-------------------------------|-----------------|-----I------|
G|-------------------------------|-----------------|-----Missed-|
D|-------------------------------|-----------------|-something--|
A|-------------------------------|-----------------|-----here---|
E|-14h15-17-15-14-15-17b(19)17---|---17\0----17\0--|------------|

[ Tab from: http://www.guitartabs.cc/tabs/l/led_zeppelin/dazed_and_confused_with_live_violin_bow_solo_tab.html ]
                                         ^   ^   ^     ^   ^   ^
E|--------*5*--|-----------------------|-------------|-------------|
B|--------*5*--|-----------------------|-------------|-------------|
G|-*12*---*5*--|-----------------------|-------------|-------------|
D|-*12*---*5*--|-----------------------|-------------|-------------|
A|-*12*--------|---5\0------------7\0--|-------------|-------------|
E|-*12*--------|---3\O------------5\O--|-1P0-1P0-1P0-|-3P0-3P0-3P0-|

                   (JUDY JUDY JUDY!)               (Everybody…knows…
   * * *  * * *                     * * *  * * *  * 
E|-7-7-6--7-7-6=/10========---------7-7-5--7-7-5—-3========------------|
B|-7-7-6--7-7-6=/10========---------7-7-5--7-7-5—-3========------------|
G|-7-7-6--7-7-6=/10========---------7-7-5--7-7-5—-3========------------|
D|-9-9-8--9-9-8=/12========---------9-9-7--9-9-7—-5========------------|
A|-9-9-8--9-9-8=/12========---------9-9-7--9-9-7-—5========------------|
E|-7-7-6--7-7-6=/10========---------7-7-5--7-7-5—-3========------------|
                                                                             Repeat a lot
   * * *  * * *   *  *  *  *  *  *   *  *  *   *  *  *   *  *  *   *  *  *     *  *  *
E|-7-7-5--7-7-5-------------------------------------------------------------|------------|
B|-7-7-5--7-7-5-------------------------------------------------------------|o----------o|
G|-7-7-5--7-7-5-------------------------------------------------------------|------------|
D|-9-9-7--9-9-7---12-12-11-12-12-11--14-14-12--14-14-12--16-16-14--17-17-16-|--16-17-17--|
A|-9-9-7--9-9-7---12-12-11-12-12-11--14-14-12--14-14-12--16-16-14--17-17-16-|o-16-17-17-o|
E|-7-7-5--7-7-5---10-10-9--10-10-9---12-12-10--12-12-10--14-14-12--15-15-14-|--14-15-15--|

                   ^ ^  ^ ^ (Be on my side I’ll be on yours)
E|---------------|--------------------------------------------|
B|---------------|--------------------------------------------|
G|---------------|--------------------------------------------|
D|-16\\\\\\\\\\0-|-4-4----------------------------------------|
A|-14\\\\\\\\\\0-|-2-2--2-2-----------------------------------|
E|-14\\\\\\\\\\0-|------0-0-----------------------------------|

   ^ ^    ^ ^     ^    (Ahhhhhhhhhhhhhhh)
E|---------------------------------------|
B|---------------------------------------|
G|---------------------------------------|
D|---------------------------------------|
A|-2-2----2-2-----2=======---------------|
E|-0-0----0-0-----0=======---------------|

 (Lots of Random Wah Wah here to get a “swoosh” effect)
 `’`’`’`’`’`’`’`’`’`’`’`’`’`’`’`’`’`’`’`’`’`’`’`’`’`’`’`’`’`’`’`’`’`’`’`’`’`’`’`’`’
E|----------------------------------------------------------------------------------|
B|----------------------------------------------------------------------------------|
G|----------------------------------------------------------------------------------|
D|----------------------------------------------------------------------------------|
A|3-3-3-3-3-3-3-3-3-3-3-3-3-3-3-3-3-3-3-3-3-3-3-3-3-3-3-3-3-3-3-3-3-3-3-3-3-3-3-3-3-|
E|1-1-1-1-1-1-1-1-1-1-1-1-1-1-1-1-1-1-1-1-1-1-1-1-1-1-1-1-1-1-1-1-1-1-1-1-1-1-1-1-1-|

(?) Indicates just behind the neck pick up
  `’`’`’`’`’`’`’`’`’`’`’`’`’`’`’`’`’`’`’`’`’  (Very Rapidly)
E|-------------------------------------------|----------|
B|-------------------------------------------|o--------o|
G|-------------------------------------------|----------|
D|-------------------------------------------|--14/(?)--|
A|-3/////////////////////////////////////(?)-|o-14/(?)-o|
E|-1/////////////////////////////////////(?)-|--12/(?)--|

  Single sweep up with bow          `’`’`’`’`’`’`’`’`’`’`’`’`’`’`   (End Bow Solo) 
E|-----------------------|-----------|----------------------------------#########|
B|-----------------------|-----------|-------------------------------------------|
G|-----------------------|-----------|-------------------------------------------|
D|-(?)\\\\\\\\\\\\\\\\\0-|-5/7---5/7-|-3-3-3-3-3-3-3-3-3-3-3-3-3-3-/14========---|
A|-(?)\\\\\\\\\\\\\\\\\0-|-----------|-------------------------------------------|
E|-(?)\\\\\\\\\\\\\\\\\0-|-3/5---3/5-|-1-1-1-1-1-1-1-1-1-1-1-1-1-1-/12========---|


E|--------------------|
B|o------------------o|
G|--------------------|
D|-14-12======--14\0--| 3 times
A|o14-12======--12\0-o|
E|-12-10======--12\0--|

(continued...)
Last edited by blakeg14 at Mar 19, 2012,
#6
Look at the code tab I posted. It's copy 'n' pasted from the tab on GuitarTabs.cc