#1
I just can't figure this song out :\ it's called "We Are" by thousand foot krutch. Brand new so most people haven't heard it yet. Anything you can pick up by ear or find would be great. here's the song if you havent heard it
http://www.youtube.com/watch?v=CS0OPaxOHeM
Last edited by IceMann22 at Mar 21, 2012,
#2
It tried messing around in Drop D:

           .  .  .
E|-----------------------
B|-----------------------
G|-----------------------
D|--3-5-3--0--0--0-------
A|--3-5-3--0--0--0-------
D|--3-5-3--0--0--0-------

Don't palm mute dotted notes, those are staccato (shortened by half-duration; listen for timing)

Eventually,

E|---------------------------------
B|---------------------------------
G|--------------------------------
D|--0/7~--------------------------
A|--0/7~--------------------------
D|--0/7~--------------------------


It's not perfect. Also, If you do make the tab of this song, I'd like to receive partial credit in the tab for helping. Thanks.
Last edited by blakeg14 at Mar 21, 2012,