#2
The octaves part of the solo tab is wack. It sounds right, but the first bit was not written well. It 's not impossible, though. There are tons of videos on YouTube of people playing it, and adding in more solos throughout the song. This looks easier without the octaves:

SOLO
1:59

E-----------------------------------------------------------------------6--------6-----------|
B---8-8-8-8-8-8-8~---4-6-6/8-8~---6~---6p8-8-9-8-6-4-6-6/8-9-8-6~---6/8----6-6/8----6/8-6-4--|
G--------------------------------------------------------------------------------------------|
D--------------------------------------------------------------------------------------------|
A--------------------------------------------------------------------------------------------|
E--------------------------------------------------------------------------------------------|
E--------------------------------------------------------------------------------------------|

E----------------------------------------------------------------------------------------------|
H---6-6/8-9-8-6--6-----4-4~---4--4--4--4--3p4--4--3p4--4/6--4-3-1----3p4-3-1---------3p4-6-8~--|
G----------------------------------------------------------------------------3-3---------------|
D----------------------------------------------------------------------------------------------|
A----------------------------------------------------------------------------------------------|
E----------------------------------------------------------------------------------------------|

E-----------------------------------------------------------------------|
H---8~--8p9-8-6-4-6----3p4-4--3p4-4---6/8-6-4-6~----4-4--softly--4-4~-4-|
G-----------------------------------------------------------------------|
D-----------------------------------------------------------------------|
A-----------------------------------------------------------------------|

Solo parts without chords Here I Am - Bare Bones by Mateoz555


Honestly, this guy's improv sounds better than the actual solo. http://www.youtube.com/watch?v=BHwewYBjsTI
Last edited by blakeg14 at Mar 26, 2012,