#1
I would love a tab, or help in creating a tab for "So many days" by Red Line Chemistry. They're a band on the rise, from my hometown, and I would love to play this song. It's a slow acoustic ballad, and if anybody could help me I would be forever grateful.

Thank You!
#2
Some interesting chord changes in the chorus! There are a couple acoustics playing. I'm guessing one is playing a variation of the "open string" style, and the other is a bit more traditional. Together they make a great full sound. Even with the open string style there a couple ways many of these chords could be played. If you're familiar with alternative ways to play some of these, feel free to play the way you're more familiar with!!


Tuning: Half step DOWN

(Most of these chords are "open stringed" variations of the
main chord name, some could be played differently, but the
root note and basic style should be correct.)

(Also, the verse doesn't have the extra notes like the intro every time - only in the beginning.)


Intro/Verse:
     C#m  A        E   B
e--|--0---0--------0---0--|
B--|--0---0--------0---0--|
G--|--6---2---1-2--1---4--|
D--|--6---2---2-2--2---4--|
A--|--4---0--------2---2--|
E--|--x---x--------0---x--|


Pre-Chorus:
      A  A  Ab   A  A  Ab   A  A  Ab   C
e--|--5--5--4----5--5--4----5--5--4----0---|
B--|--5--5--4----5--5--4----5--5--4----0---|
G--|--6--6--4----6--6--4----6--6--4----5---|
D--|--7--7--6----7--7--6----7--7--6----5---|
A--|--7--7--6----7--7--6----7--7--6----3---|
E--|--5--5--4----5--5--4----5--5--4----x---|


Chorus:
      E    B   C#m   C    E Esus  E               C#m  C   E
e--|--0----0----0----0----0--0----0--|----------|--0---0---0--|
B--|--0----0----0----0----0--0----0--|----------|--0---0---0--|
G--|--1----4----6----5----1--2----1--|--Repeat--|--6---5---1--|
D--|--2----4----6----5----2--2----2--|----------|--6---5---2--|
A--|--2----2----4----3----2--2----2--|----------|--4---3---2--|
E--|--0----x----x----x----0--0----0--|----------|--x---x---0--|


REPEAT Intro, verse, chorus


End:
     F#m    A     E
e--|--2-----0----0--|
B--|--2-----2----0--|
G--|--2-----2----1--|
D--|--4-----2----2--|
A--|--4-----0----2--|
E--|--2-----x----0--|
Last edited by Reedly at Apr 5, 2012,
#4
Wow thank you so much! I've seen them perform this live but because it was a concert it's hard to tell what they're playing. Also, there isn't alot of video on them so its hard to study. I'm still learning how to play guitar and trying to learn some theory as well, but I'm in the beginning stages. Thank you so much!