#3
at the gates -slaughter of the soul, or cold
Despised icon - MVP
Play any of those at full speed and you can be proud
#4
technical difficulties ... Racer X ... so far ive only learnt to play the first few verses at 80% speed... good luck
#5
Quote by turnbacknow
Looking for something that sounds good, and is fun to use as an exorcise.


If you want to exorcise someone, I recommend "Amazing Grace" or any other church-related song
#8
Arpeggios from Hell by Yngwie Malmsteen starting from 75% upto 175%/200%, you'll be warmed up a bit after that.


Here's what I do for a personal warmup if you're interested too;


Basic Diminished sweeps here. Change keys in between the number of times you practice it for better results.

      S  S  S  S  S  S  S  S  S  S  S  S  S S  S  S  
E||--20-17-------17-14-------14-11-------11-8-------|
B||--------19----------16----------13---------10----|
G||-----------20----------17----------14---------11-|
D||-------------------------------------------------|
A||-------------------------------------------------|
E||-------------------------------------------------|


  S S S S  S S S  S S S  S S S S S S    S S  S S  S S S  S S S S S  S S  S  S  
--8-5--------------------------------|---------------------8-5-----11-8-------|
------7---10-7------7----------------|--7--------10-7----------7--------10----|
--------8------8------8------8-5-----|----8-----------8----------8---------11-|
-----------------10-----10-7-----7---|------10-7--------10--------------------|
-----------------------------------9-|----------------------------------------|
-------------------------------------|----------------------------------------|


   S  S  S  S  S  S  S  S  S  S  S  S  S  S  S  S       
--14-11-------17-14-------20-17-------23-20-------|----|
--------13----------16----------19----------22----|----|
-----------14----------17----------20----------23-|----|
--------------------------------------------------|----|
--------------------------------------------------|----|
--------------------------------------------------|----|


Alt Picking/Timing, Really in the time of four notes for a beat followed by 6 notes on the next beat, followed by another 4, and so on. I find it builds on your timing and gives you hand a nice workout. when played appropriately.

Step 1;

               |---3---|  |---3---|              |---3---|  |---3---|  
   S  S  S  S  S   S   S  S   S   S  S  S  S  S  S   S   S  S   S   S  
----------------------------------------------------------------------|
----------------------------------------------------------------------|
----------------------------------------------------------------------|
----------------------------------------------------------------------|
-----------12-15p-14p-12---------------------14-18p-15p-14------------|
--12-14-15---------------15p-14p-12-14-15-17---------------17p-15p-14-|


               |---3---|  |---3---|              |---3---|  |---3---|    -- 
   S  S  S  S  S   S   S  S   S   S  S  S  S  S  S   S   S  S   S   S       
----------------------------------------------------------------------|----|
----------------------------------------------------------------------|----|
----------------------------------------------------------------------|----|
----------------------------------------------------------------------|----|
-----------12-15p-14p-12---------------------10-14p-12p-10------------|----|
--12-14-15---------------15p-14p-12-11-12-14---------------14p-12p-11-|----|


Next, same pattern, switch Octaves every beat. Looks intimidating, but its not once you get step 1 down.


               |---3---|  |---3---|              |---3---|  |---3---|  
   S  S  S  S  S   S   S  S   S   S  S  S  S  S  S   S   S  S   S   S  
----------------------------------------------------------------------|
----------------------------------------------------------------------|
--------------17p-16p-14------------------------20p-17p-16------------|
-------------------------17p-16p-14------------------------19p-17p-16-|
-----------12--------------------------------14-----------------------|
--12-14-15--------------------------14-15-17--------------------------|


               |---3---|  |---3---|              |---3---|  |---3---|    -- 
   S  S  S  S  S   S   S  S   S   S  S  S  S  S  S   S   S  S   S   S       
----------------------------------------------------------------------|----|
----------------------------------------------------------------------|----|
--------------17p-16p-14------------------------16p-14p-12------------|----|
-------------------------17p-16p-14------------------------16p-14p-13-|----|
-----------12--------------------------------10-----------------------|----|
--12-14-15--------------------------11-12-14--------------------------|----|


Now, every 1/8th of a beat, we're going to change octaves. Same pattern again.


                 |---3---|  |---3---|                |---3---|  |---3---|  
   S   S  S   S  S   S   S  S   S   S  S   S  S   S  S   S   S  S   S   S  
--------------------------------------------------------------------------|
--------------------------------------------------------------------------|
---------12h-14------------------------------14h-16-----------------------|
---------------------------17p-16p-14--------------------------19p-17p-16-|
----------------15p-14p-12--------------------------18p-15p-14------------|
--12h-14------------------------------14h-15------------------------------|


                 |---3---|  |---3---|                |---3---|  |---3---|    -- 
   S   S  S   S  S   S   S  S   S   S  S   S  S   S  S   S   S  S   S   S       
--------------------------------------------------------------------------|----|
--------------------------------------------------------------------------|----|
---------12h-14------------------------------11h-12-----------------------|----|
---------------------------17p-16p-14--------------------------16p-14p-13-|----|
----------------15p-14p-12--------------------------14p-12p-10------------|----|
--12h-14------------------------------11h-12------------------------------|----|


Basic Minor Ascend.


  S  S S S S S S  S S S S S S  S S S  
-------------------------------------|
-------------------------------------|
-------------------------------------|
---------2------------4------------5-|
-----------3------------5------------|
--0h-2-3-----5-2h-3-5-----7-5h-7-8---|


  S S S  S  S S S  S S   S  S S  S  S  S   S  
---------------------------------------------|
---------------------------------------------|
---------------------------------------------|
--------------7---------------9--------------|
--7-------------9---------------10-----------|
----8-7h-8-10-----10-8h-10-12------12-10h-12-|


   S  S  S  S  S   S  S  S  S  S  S   S  S   S  S   S       
------------------------------------------------------|----|
------------------------------------------------------|----|
------------------------------------------------------|----|
-----10-----------------12----------------------------|----|
--------12-----------------14-------------------------|----|
--14-------14-12h-14-15-------15-14p-12-11h-12-11h-12-|----|


Tapping practice, mostly straight 16ths but with odd beat shaping.


   T        T              T         T      T  T       
   S  S  S  S  S  S S  S   S S   S   S  S   S  S   S   
--12p-9p-6------------------------------------15s-18s-|
-----------------------------8h-11h-14----------------|
-----------12p-9p-6-----------------------------------|
--------------------6h-9h-13-----------13h-17---------|
------------------------------------------------------|
------------------------------------------------------|


             T                T          T      T  T       
   S   S  S  S   S  S S   S   S  S   S   S  S   S  S   S   
--15p-12p-9---------------------------------------18s-21s-|
--------------------------------11h-14h-17----------------|
------------15p-12p-9-------------------------------------|
----------------------9h-13h-17------------14h-20---------|
----------------------------------------------------------|
----------------------------------------------------------|


            T                  T          T      T  T       
   S  S  S  S   S   S  S   S   S  S   S   S  S   S  S   S   
--18-15-12-----------------------------------------21s-24s-|
---------------------------------14h-17h-20----------------|
-----------18p-15p-12--------------------------------------|
----------------------13h-17h-20------------17h-23---------|
-----------------------------------------------------------|
-----------------------------------------------------------|


              T          T          T          T         T         T        T   
   |---3---|  |---3---|  |---3---|  |---3---|  |---3--|  |---3--|  |--3--|  |--3
   S   S   S  S   S   S  S   S   S  S   S   S  S   S  S  S   S  S  S  S  S  S  S
--21p-18p-15------------18p-15p-12------------15p-12p-9-----------12p-9p-6------
--------------------------------------------------------------------------------
-------------21p-18p-15------------18p-15p-12-----------15p-12p-9----------12p-9
--------------------------------------------------------------------------------
--------------------------------------------------------------------------------
--------------------------------------------------------------------------------


  --  
----||
----||
----||
----||
----||
----||


Don't be afraid to make 3 string sweeps and ascends into 4, 5 and 6 string as well.


I also added a guitar pro. Adjust your speed as needed.
Attachments:
warmup..gp5
Quote by Cobain_is_king

Seth: 1
A7X: 0
#10
Quote by alexw1020
If you want to exorcise someone, I recommend "Amazing Grace" or any other church-related song
Damn you made me laugh. cc:
#12
Quote by luxeion
Damn you made me laugh. cc:


I almost fell off my chair when I was reading that... Church songs for exercise... Oh well, not my place to judge...

Still canning myself laughing