#1
Drop C
17-18-17-15-----------17-18-17-20-18-17-15------|
|-15-18-----------18-17-15-18--------------------18-18-|
|------------------------------------------------------|
|------------------------------------------------------|
|------------------------------------------------------|
|------------------------------------------------------|
|------------------------------------------------------|

|---------------------------------17----17----------17--------|
|-13h15p13--------13h15p13----------18----18------17--18-17---|
|---------14h15p14--------14h15p14----19----19--18---------19-|
|---------------------------------------------19--------------|
|-------------------------------------------------------------|
|-------------------------------------------------------------|
Last edited by edumoette at Apr 11, 2012,
#3
|------17-18-17-15-----------17-18-17-20-18-17-15------|
|-15-18-----------18-17-15-18--------------------18-18-|
|------------------------------------------------------|
|------------------------------------------------------|
|------------------------------------------------------|
|------------------------------------------------------|
|------------------------------------------------------|

|---------------------------------17----17----------17--------|
|-13h15p13--------13h15p13----------18----18------17--18-17---|
|---------14h15p14--------14h15p14----19----19--18---------19-|
|---------------------------------------------19--------------|
|-------------------------------------------------------------|
|-------------------------------------------------------------|

1. When posting tabs, put them in code so we can actually read it.
2. Figuring out the key of a song is not a technique. This belongs in Musician Talk.
3. If it's in Drop C tuning, it's in the key of D# major/C minor.
4. Learn how to figure out the key for yourself. It will help you so much more than us just telling you the answer.
Quote by Geldin
Junior's usually at least a little terse, but he knows his stuff. I've always read his posts in a grouchy grandfather voice, a grouchy grandfather with a huge stiffy for alternate picking.
Besides that, he's right this time. As usual.