#1
Song INTRO:

Part 1
----------------------------------------------
----------------12-10-9-7-5----------------
--9-11-13--11-9-------------6-4-----------
----------------------------------------------
----------------------------------------------
----------------------------------------------

Part 2
----------------------------------------------
---------------12-10-12-14-16-12-------
--9-11-13-11-9----------------------------
----------------------------------------------
----------------------------------------------
----------------------------------------------

In Between verses

----------------------------------------------
------------------------9---------------------
--9-99-9-8-9---9-8-9-11---11------------
----------------------------------------------
----------------------------------------------
----------------------------------------------
Every night in my dreams I see you I feel you
Far across the distance and spaces between us
Love can touch us one time and last for life time
Love was when I loved you one true time I hold to


---------------------------------------------
---------------------------------------------
--9-99-9-8-9---8-----------------------------
-----------------7---------------------------
---------------------------------------------
---------------------------------------------
That is How I know you go on
You have come to show you go on
And never let go till we are gone
In my life we’ll always go on


Chorus :

--------------------------------------------
--5--7-----12-10-9--7--9-10-9-7-5-4-5-4-0---
--------------------------------------------
--------9------------------------------------
--------------------------------------------
--------------------------------------------
Near, far, wherever you are I believe that the heart does go on
Once more you open the door


--------------------------------------------
---5-4-5-7-9-7-5------5-4-5-4-0-4-0---
--------------------------------------------
--------------------------------------------
--------------------------------------------
--------------------------------------------
and your here in my heart and my heart will go on and on
(repeat two times)


------------------------------------------------
----9-11----16-14-13-11-13---14-13-11-9-8-9-8-4-
------------------------------------------------
---------13-------------------------------------
------------------------------------------------
------------------------------------------------
You are here there’s nothing I fear and I know tht my heart will go on
We’ll stay for ever this way


--------------------------------------------
----9-8-9-11-13-11-9-----9-8-9-8-4-8-4------
--------------------------------------------
--------------------------------------------
--------------------------------------------
--------------------------------------------
You are safe in my hear and my heart will go on and on