Ridder Lugtepik
UG Newbie
Join date: May 2008
790 IQ
#1
I have tried three times now to post my correction of tab, but when I look at the comments after posting it. The only thing that appears is this:

Great tab. Pretty accurate, but a few things I would change is:
Verse should more like this
e|--------------------------------------------|

I thought at first it was just a mistake, but have now tried three times in a row with and without [tab] tags. Why doesn't my tab appear?!
1971 - was the f***ing year
Bobby Liebling is the man!
doive
Maths + Science expert
Join date: Oct 2005
1,552 IQ
#2
Which tab - may have just taken a while for the server to process. If you then repeatedly try to submit something it can get ignored as the server thinks it's spam
The only 6 words that can make you a better guitarist:

Learn theory
Practice better
Practice more
emad
Rocker
Join date: Dec 2006
13,121 IQ
#3
Link?
Quote by zappp
emad I'm gonna ban you, seriously.
emad
Rocker
Join date: Dec 2006
13,121 IQ
#5
I removed your comments. And no, there's no comment/correction pre-approval system.
Could you please post your correction here? to see what's wrong with it.
Quote by zappp
emad I'm gonna ban you, seriously.
Ridder Lugtepik
UG Newbie
Join date: May 2008
790 IQ
#6
Thanks.
Here's my correction:

"This is a great tab, mostly accurate, but the verse and break parts are wrong.
They should be:
[tab]e|---------------------------------------------| <--x5
B|--------------------------------------------|
G|----7-/9-9-----------------7-/9-9-----------|
D|-2--7-/9-9---5-5-7-/9---2--7-/9-9---5-------|
A|-2--5-/7-7---5-5-7-/9---2--5-/7-7---5-------|
E|-0-----------3-3-5-/7---0-----------3-7-6-5-|

Break
e|------------------------------------------------|
B|------------------------------------------------|
G|---------------------------------------------12-|
D|-5---------5--2------5----5-4h5p4------------12-|
A|-5---------5--2------5------------5---5-7----10-|
E|-3-----6-5-3--0------3--------------7-----------|[/tab]

Thanks for the tab anyway!"

There you go . Although this looked screwed up, copy paste it into a blank tab page on UG or a notepad document to see the tab as it should look.
1971 - was the f***ing year
Bobby Liebling is the man!
Last edited by Ridder Lugtepik at Apr 26, 2012,
emad
Rocker
Join date: Dec 2006
13,121 IQ
#7
Figured out what was the problem

Try this, copy/paste it in correction section (w/o code tags):

"This is a great tab, mostly accurate, but the verse and break parts are wrong.
They should be:
[tab]e|---------------------------------------------| x5
B|--------------------------------------------|
G|----7-/9-9-----------------7-/9-9-----------|
D|-2--7-/9-9---5-5-7-/9---2--7-/9-9---5-------|
A|-2--5-/7-7---5-5-7-/9---2--5-/7-7---5-------|
E|-0-----------3-3-5-/7---0-----------3-7-6-5-|

Break
e|------------------------------------------------|
B|------------------------------------------------|
G|---------------------------------------------12-|
D|-5---------5--2------5----5-4h5p4------------12-|
A|-5---------5--2------5------------5---5-7----10-|
E|-3-----6-5-3--0------3--------------7-----------|[/tab]

Thanks for the tab anyway!"


It'll work.
Thanks for the report.
Quote by zappp
emad I'm gonna ban you, seriously.