Millea
Registered User
Join date: Apr 2012
247 IQ
#1
It's a chillwave/ambient song but their is an acoustic guitar sample in it which is just amazing, if anyone knows the song it comes from and can tab it out for me it would be so helpful! If you're into chillwave/ambient music I highly recommend giving him a listen. I can't link it right now as I am on my iPod, sorry.
adamgur96
Not caring no more
Join date: Apr 2011
865 IQ
#4
hey man, this is easy to learn by ear, i'm sure you can do it yourself.
i'll give you a hint, use a capo on the first fret.
if i'll have time soon i'm gonna tab it for ya, but don't rely on tabs, try to learn by ear.
I Have An Avant Garde Fetish....
Quote by Gantz92
Im in no way an amateur. I masturbate in public all the time.
Quote by Nelsean
I can get an erection just by looking at a plastic cup, or a river.
Quote by Obsceneairwaves
Don't worry, rape will always find a back way in
adamgur96
Not caring no more
Join date: Apr 2011
865 IQ
#5
ok so i listened to the woule song, the guitar does only one riff:

capo on first fret

e-------------------------0-----------|-----------------------------0-------------|
B----------------4--------------------|--------------------4------------4--------|
G---------4----------4---------------|--------------4---------4-----------4-----|
D-------------------------------------|--------------------------------------------|
A------0------------------------------|-----0-------------------------------------|
E -------------------------------------|-------------------------------------------|


e-------------------------0-----------|--------------------------------------------------|
B----------------4--------------------|--------------------4----------------------------|
G---------4----------4---------------|--------------4---------4------------------------|
D-------------------------------------|---------------------------------------------------|
A------4------------------------------|-----4------------------------------6--------6---|
E -------------------------------------|-------------------------------4---------4-------|
I Have An Avant Garde Fetish....
Quote by Gantz92
Im in no way an amateur. I masturbate in public all the time.
Quote by Nelsean
I can get an erection just by looking at a plastic cup, or a river.
Quote by Obsceneairwaves
Don't worry, rape will always find a back way in
Theink
Registered User
Join date: Aug 2011
10 IQ
#6
The guitar and vocals are sampled from Closer by Ne-yo, which might be easier to find and more to mess around with.
juandavidcg
Registered User
Join date: Mar 2016
10 IQ
#7
I have a other version i think its more acurated .

Capo 1 Frt.

e---------0----------0-----
b-----5----------5-----5---
g---3---3------3---3-----3-
d--------------------------
a-0----------0-------------
E--------------------------

e---------0-------------------
b-----5----------5------------
g-----------------------------
d---7---7------7---7----------
a-5----------5----------------
E------------------------5-5-