#1
The fill-ish things he does over the G chord around 20 seconds into the song (after "you know that there are")... What on earth is that? How do I play it?
#3
Sorry for the delay. Here is how you play each riff:

:01
Intro:


|--0---0----0-0---0--0---0-0-0--|--0---0----0-0---0--0---0-0-0--|
|--8---8----3-3---1--1---1-3-3--|--8---8----3-3---1--1---1-3-3--|
|--9---9----4-4---2--2---2-4-4--|--9---9----4-4---2--2---2-4-4--|
|--10--10---5-5---3--3---3-5-5--|--10--10---5-5---3--3---3-5-5--|
|--10--10---5-5---3--3---3-5-5--|--10--10---5-5---3--3---3-5-5--|
|-------------------------------|-------------------------------|



:19
Riff 1:

|--3-----3---3---3---3-----3---3------3---3-----|
|--0-----1---0---1---0-----1---0------1---0-----|
|--0-----0---0---0---0-----0---0------0---0-----|
|--0-----2---0---2---0-----2---0------2---0-----|
|--2-----0---2---0---2-----0---2------0---2-----|
|--3-----3---3---3---3-----3---3------3---3-----|



:35
Riff 2:

D|------------------------------|
A|---------------0--3--0----3---|
E|--3---3--3--3-----------------|



:39
Riff 3:

D|-----------------------0------|
A|---------------0--3-----------|
E|--3---3--3--3-----------------|

Last edited by nelliewilson at Feb 7, 2013,