Benzeyn
Registered User
Join date: Mar 2013
32 IQ
#1
Evening all!

I've got a guitar line in my head and I can't think of the song it is from. It's slowly driving me insane, so, oh wise UG, please help me identify this song.

d|---------------------|-------------------
A|---------------------|-------------------
F|---------10---9------|------------10---9-
C|-12-0-10----0---0-12-|-0-12-10-12----0---
G|---------------------|-------------------
D|---------------------|-------------------

d|---------------------|----------8----------
A|---------------------|---------------------
F|---------10---9------|---10-9-10---10-9----
C|-12-0-10----0---0-12-|-0----------------10-
G|---------------------|---------------------
D|---------------------|---------------------


I know it harmonises later on in the intro and it's around 150bpm. I think it's by someone along the lines of It Dies Today, As I Lay Dying etc etc.

I've also attached a midi file to help you more.
Attachments:
Guitar Line UG Help 1.mid
Last edited by Benzeyn at Mar 2, 2013,
Benzeyn
Registered User
Join date: Mar 2013
32 IQ
#4
Quote by whywefight
The Darkest Nights- AILD


You're an absolute god, thanks very much!