#1
http://www.youtube.com/watch?v=jy2MLw_JMJk


That intro bit is just so chill, completely unlike anything I've managed to write before. Till 00:45 or so. Anyone knows what kind of scale is being used here? Just the intro, the main song itself seems to be minor with accidentals judging by the tab....thing is, I cant find any tabs of the intro and my ear is kinda unreliable.
Last edited by GS LEAD 5 at Mar 8, 2013,
#2
Plain G minor

Something like this:

e|----10-8----------8------------10-8----------8-----13p10---|
B|--8------11-10-11---11-10~---8------11-10-11----10---------|
G|-----------------------------------------------------------|
D|-----------------------------------------------------------|
A|-----------------------------------------------------------|
E|-----------------------------------------------------------|
Last edited by deHufter at Mar 8, 2013,
#3
Quote by deHufter
Plain G minor

Something like this:

e|----10-8----------8------------10-8----------8-----13p10---|
B|--8------11-10-11---11-10~---8------11-10-11----10---------|
G|-----------------------------------------------------------|
D|-----------------------------------------------------------|
A|-----------------------------------------------------------|
E|-----------------------------------------------------------|



Well whaddaya know.....thanks , appreciate it
Last edited by GS LEAD 5 at Mar 8, 2013,