#1
I heard a small part and remembered it. Its some slow sad solo. played with octaves sometimes.

e|----------------------|
B|------------------------|
G|------7-------------------|
D|---5----7hbr---7hbrp5---------------|
A|-5---------------------------7-7-----|
E|----------------------|

These chords i think.

e|----------------------|
B|------------------------|
G|----------9---------------|
D|--9--7---7--9--------|
A|--7--5-------7-------------------|
E|----------------------|
#2
That's too vague man, some hints at least about the tempo of everything would be very helpful...
#5
Quote by Xenoflare
is it Bleeding Me?

Yeah thanks dude, that solo is just epic!